Greenwheel - Dim Halo Chords & Tabs

 

Dim Halo Chords & Tabs

Greenwheel Chords & Tabs

Version: 1 Type: Bass Tab 0 ratings
1 star 2 stars 3 stars 4 stars 5 stars
comments

Dim Halo Bass Tab

Title: Dim Halo
Band: Greenwheel
Album: Soma Holiday
Bassist: Brandon Armstrong
Tabbed By: Matt Bodholdt (matt690@hotmail.com)

Drop D Tuning (DADG)
*=Hold Note

Riff 1
G|-------------------------------------|
D|-------------------------------------|
A|-------------1*----------------------|
D|--5-5-55-3-5----5-55-3-5-3-5-3*------|

Riff 2
G|------------------------------------------------|
D|------------------------------------------------|
A|-------1----------1----------1-----------1------|
D|---555---555--555---555--333---333---333---333--|

Pre-Chorus
G|-----------------------------|
D|-----------------------------|
A|---5*----3*------5*----3*--\-|
D|-----------------------------|

Chorus
G|------------------------------------------------|
D|--------------3h5p3---3333330-------------------|
A|----555555--------------------333333------------|
D|-------------------------------------555555-----|
[ Tab from: http://www.guitartabs.cc/tabs/g/greenwheel/dim_halo_btab.html ]
Breakdown
G|---------------------------------------------|
D|---------------------------------------------|
A|--------1*-5-3--3-----------1*-5-3-----------|
D|-5*-5-4------------4*-5*-5-4*-------34-------|

Riff 3
G|--------------------------------------------------------------------------------|
D|------------------------------------||(fast, then spaced notes-between bars)-||-|
A|------------------------5555-333-5555-333333333---------------------------------|
D|-/(17)(17)(17)(17)(17)--------------------------55555-33333-55555-3333333333*---|

Riff 1  x2  (0:00 - 0:25)
Rest        (0:25 - 0:45)
Riff 2  x2  (0:46 - 0:55)
Pre-Chorus  (0:55 - 1:05)
Chorus  x2  (1:05 - 1:25)
Riff 2  x2  (1:25 - 1:35)
Riff 1  x2  (1:35 - 1:55)
Pre-Chorus  (1:55 - 2:05)
Chorus  x2  (2:05 - 2:22)
Breakdown   (2:22 - 2:43)
Rest        (2:43 - 3:02)
Chorus  x2  (3:02 - 3:25)
Riff 3      (3:25 - 3:45)
Riff 1      (3:45 - 3:58)
Rest        (3:58 - End)

To play this song right you must listen to it to pick up
on the transitions and the timing.

-Matt
Comments