Greenwheel - Breathe Chords & Tabs

 

Breathe Chords & Tabs

Greenwheel Chords & Tabs

Version: 2 Type: Tab 0 ratings
1 star 2 stars 3 stars 4 stars 5 stars
comments

Breathe Tab

   
"Breathe" by: Greenwheel
Tabbed by: Rob Marston (rob@leftatom.com)

Verse 1: (acoustic)

e|---0---|---0---|            |---3------------------|
B|---1---|---1---|            |---3------------------|
G|---2---|---0---| Repeat and end with     |---0-----|
D|---2---|---2---|            |---0------------------|
A|---0---|---3---|            |---2------------------|
E|---0---|---0---|            |---3------------------|

    Am       C                              G

Chorus: (electric)
[ Tab from: http://www.guitartabs.cc/tabs/g/greenwheel/breathe_tab_ver_2.html ]
e|-------|-------|-------|-------|
B|-------|-------|-------|-------|
G|---6---|-------|-------|-------|
D|---6---|---6---|---8---|---6---|
A|---4---|---6---|---8---|---6---|
E|-------|---4---|---6---|---4---|

Verse 2: (electric)

e|-------|-------|-------|-------|-------|
B|-------|-------|-------|-------|-------|
G|---6---|-------|---6---|-------|-------|
D|---6---|---6---|---6---|---8---|---6---|
A|---4---|---6---|---4---|---8---|---6---|
E|-------|---4---|-------|---6---|---4---|

last time end here: --------->


That's basically it!
Comments