Greenday - Jesus Of Suberbia (the Part I Don't Care) Chords & Tabs

 

Jesus Of Suberbia (the Part I Don't Care) Chords & Tabs

Greenday Chords & Tabs

Version: 1 Type: Bass Tab 0 ratings
1 star 2 stars 3 stars 4 stars 5 stars
comments

Jesus Of Suberbia (the Part I Don't Care) Bass Tab

hey guys..if anybody is interested with the Bass Part Of Jesus Of Suburbia(I Don't Care)
here it is...



Song: Jesus Of Suberbia (The Part *I don't Care*)
Band: GreenDay


well you can play this part with both Bass and Regular Electric Guitar, and i am going to put
them both, though they are the same...



Bass:
[ Tab from: http://www.guitartabs.cc/tabs/g/greenday/jesus_of_suberbia_the_part_i_dont_care_btab.html ]
------------------------------------------------------------------------
------------------------------------------------------------------------
-----------7-7-7-------11-9-7--1212---11-9-7-----1313-1313\\\\\\\\\\\\\-
-----77-77-------77-77--------------------------------------------------


and if you want to play it with a Regular Guitar:

-----------------------------------------------------------------------
-----------------------------------------------------------------------
-----------7-7-7-------11-9-7-------11-8-7-----------------------------
-----77-77-------77-77--------1212---------1313-1313\\\\\\\\\\\\\\\\\\\
-----------------------------------------------------------------------
-----------------------------------------------------------------------

that's it...you play it about four times...

Comments