Green River - One More Stitch Chords & Tabs

 

One More Stitch Chords & Tabs

Green River Chords & Tabs

Version: 1 Type: Tab

One More Stitch Tab

e|---------------------------------|
B|---------------------------------|
G|------0--------------------------|
D|----2---2----------0-----0-------|
A|--2-------2------0-----0-----0---|
E|0-----------0--3-----2-----1---0-|

e|---------------------------------|
B|---------------------------------|
G|------0--------------------------|
D|----2---2----------0-----0-------|
A|--2-------2------0-----0-----0---|
E|0-----------0--5-----7-----2---0-|
[ Tab from: http://www.guitartabs.cc/tabs/g/green_river/one_more_stitch_tab.html ]