Green Lizard - Autumn Chords & Tabs

 

Autumn Chords & Tabs

Green Lizard Chords & Tabs

Version: 2 Type: Tab 0 ratings
1 star 2 stars 3 stars 4 stars 5 stars
comments

Autumn Tab

Green Lizard - Autumn

Tabt by Jeroen Gabri?ls.
E-mail me at gitaristjg@hotmail.com

The E-string is a ? step down.

Part A (0-0:40) (1:36-2:02)
 E-----------------------------------|
 B--4---4----------------------------|
 G----------3---3---4---4---1---1----|
 D----1---1---1---1---1---1---1---1--|
 A-----------------------------------|
D#-----------------------------------| Clean.

Part B (0:40-1:05) (2:02-2:28) (3:11-4:02-|
 E----------------------------------------|
 B----------------------------------------|
 G--8-8-8-8-------------------------------|
 D--8-8-8-8--8-8-8-8--9-9-9-9--6-6-6-6----|
 A--6-6-6-6--8-8-8-8--9-9-9-9--6-6-6-6----|
D#-----------7-7-7-7--8-8-8-8--5-5-5-5----| Distortion.
[ Tab from: http://www.guitartabs.cc/tabs/g/green_lizard/autumn_tab_ver_2.html ]
Part C1 (1:05-1:18) (1:21-1:35) (2:28-2:42) (2:45-2:57-------------------|
 E-----------------------------------------------------------------------|
 B-----------------------------------------------------------------------|
 G-----------------------------------------------------------------------| Distortion.
 D--4--2--8--6-----------------------------------------------------------| Listen to the CD
 A--4--2--8--6-------------------------- how to play the D#--3--1--7--5--| chords.

Part C2 (1:18-1:21) (2:42-2:45)
 E--------------------------------------|
 B--------------------------------------|
 G--------------------------------------| Distortion.
 D--1-4-6-------------------------------| Listen to the CD
 A--1-4-6-------------------------------| how to play the
D#--0-3-5-------------------------------| chords.

(1:36) (4:03)
 E--------|
 B--------|
 G--------|
 D--1-----|
 A--1-----|
D#--0-----| Distortion.

Part D (2:57-3:11)
[Guitar 1]
 E--------------|
 B-4------------|
 G---3----------|
 D---1----------|
 A--------------| Clean.
D#--------------| Repeat 16x.

[Guitar 2]
 E--------------|
 B--------------|
 G--------------|
 D--4--2--8--6--|
 A--4--2--8--6--| Clean but you can play it
D#--3--1--7--5--| with distortion if you want.
Comments