Green Jelly - What Would Brian Boitano Do Chords & Tabs

 

What Would Brian Boitano Do Chords & Tabs

Green Jelly Chords & Tabs

Version: 1 Type: Tab 0 ratings
1 star 2 stars 3 stars 4 stars 5 stars
comments

What Would Brian Boitano Do Tab

   
Band: Green Jelly
Song: What would Brian Boitano Do?

Tabber: John cukras
Email: riffreaper@yahoo.com

Tuning: Normal

Riff 1:
E------------------------
B------------------------
G------------------------
D-----------7------------
A-7-777-777-5-7-777-777-5
E-5-555-555---5-555-555-3  x's 4

Riff 2:
E----------------------------
B----------------------------
G----------------------------
D--------7-------------7-----
A-7--5-7-5--7-5-6--5-7-5--7-5
E-5--3-5----5-3-4--3-5----5-3

Riff 1 x's 2
[ Tab from: http://www.guitartabs.cc/tabs/g/green_jelly/what_would_brian_boitano_do_tab.html ]
Riff 3:                                                         1st time     2nd time
E------------------------------------------------------------|------------|------------
B------------------------------------------------------------|------------|------------
G------------------------------------------------------------|------------|------------
D------------------------------------------------------------|------------|------------
A-7-777-777-555-333-777-777-666-888--999-999-777-777-999-999-|-1111-1111--|-13-13-14-14
E-5-555-555-333-111-555-555-444-666--777-777-555-555-777-777-|-999--999---|-11-11-12-12
pm  ... ... ... ... ... ... ... ...  ... ... ... ... ... ...   ...  ...

Riff 1 x's 2

Riff 2

Riff 1 x's 2

Riff 3: 2nd time

Riff 4:
E---------------------------------------------------------
B---------------------------------------------------------
G---------------------------------------------------------
D-5-5-5-----5---------------------------------------------
A-3-3-3-----3--3-3-----3----3----3---------3-3-3-3-3-3-3-3
E-------000----1-1-000-1-00-1-00-1-0000000-1-1-1-1-1-1-1-1
pm      ...        ...   ..   ..   .......

Riff 1 x's 2

Riff 3: 1st time

Riff 1 x's 2

End:
E------------
B------------
G------------
D------------
A-7-777-777-5
E-5-555-555-3
Comments