Green Jelly - Maximum Carnage Chords & Tabs

 

Maximum Carnage Chords & Tabs

Green Jelly Chords & Tabs

Version: 1 Type: Bass Tab 0 ratings
1 star 2 stars 3 stars 4 stars 5 stars
comments

Maximum Carnage Bass Tab

   
Green Jelly - Maximum Carnage 
Tabbed By: Savages_84
Intro
G-----------------
D-----------------
A-----------------
E-2-1-03-2-00-5---
[ Tab from: http://www.guitartabs.cc/tabs/g/green_jelly/maximum_carnage_btab.html ]
G-------------------
D-------------------
A-------------------
E-2-1-03-2-0-4h2-2--
Verse
G-------------------------------
D-------------------------------
A-------------------------------
E-xhx-1-xhx-1-xhx-1-xhx-1-xhx-2-
Chorus
F1
G-----------------
D-----------------
A-----------------
E-2-1-03-2-00-5---
F2
G-------------------
D-------------------
A-------------------
E-2-1-03-2-4h2-2----
Bridge
P1
G-----------------------
D-----------------------
A-----------------------
E-3-5-2-0000-111111-2---
P2
G-------------------
D-------------------
A-------------------
E-00-1-00-1-00-1----

Order:                                                                                      
Intro x1
Verse x8
Bridge P1 x1
Chorus x2 (F1, F2, F1, F2)
Bridge P2 x2
Verse x8
Bridge P1 x1
Chorus x2
Bridge P2 x1
Verse x8
Bridge P1 x1
Chorus x2
Bridge P2 x5
Chorus x1 

Key:
h=hammer on
x=palm mute
Note: This is not surely Green Jelly. I am positive beyond belief. This is the
tab to the famous game for Sega Genesis, Maximum Carnage.
Comments