Green Jelly - Chewbacca Chords & Tabs

 

Chewbacca Chords & Tabs

Green Jelly Chords & Tabs

Version: 1 Type: Tab 0 ratings
1 star 2 stars 3 stars 4 stars 5 stars
comments

Chewbacca Tab

From: RageAgnstDMarmot@aol.com
Date: Mon, 19 Nov 2001 16:08:37 EST
Subject: g/green_jelly/chewbacca.tab

Green Jelly - Chewbacca
(From The Movie "Clerks" - And the Soundtrack)
Tab - Rich Jones 

Guitar Solo / Intro
e-|----------------------------------|
b-|----------------------------------|
g-|-3-4-3-4-6-4-3-6-4-3--------------|
d-|---------------------4------------|
a-|----------------------------------|
e-|----------------------------------|
[ Tab from: http://www.guitartabs.cc/tabs/g/green_jelly/chewbacca_tab.html ]
Main Riff
e-|----------------------------------------------------------|
b-|----------------------------------------------------------|
g-|----------------------------------------------------------|
d-|-3-3-4-4-5-4----------------------33-44-5-4-----44-5-4----|
a-|-3-3-4-4-5-4----------------------33-44-5-4-----44-5-4----|
e-|-1-1-2-2-3-2-0000-000-00 x's 3----11-22-3-2-----22-3-2----|
pm              .... ... ..

Play this with heavy distortion. That's pretty much it.

Questions, Comments, Errors:
EverStoned@kickassmovies.com

"What A Wookie!"
Comments