Green Jelly - Carnage Rules Chords & Tabs

 

Carnage Rules Chords & Tabs

Green Jelly Chords & Tabs

Version: 1 Type: Tab 0 ratings
1 star 2 stars 3 stars 4 stars 5 stars
comments

Carnage Rules Tab

   
Green Jelly - Carnage Rules

I'm VERY surprised that I haven't found a tab for this song. It kicks ass!

Tuning: Standard E A D G b E

Starts out with about 1 minute of intense sounds of destruction and ends with a scream,
enter Green Jelly/Green Jello

Opening Riff
|-----------------------------------------------------------------------------------
|-----------------------------------------------------------------------------------
|-----------------------------------------------------------------------------------
|---------------------------|not played first time|---------------------------------
|-4--4-2-5-4-3-2-x-/7-7-7---4--4-2-5-4-3-2-4-5-4-3--4-4-2-5-4-3-2-2--2--2--4--------
|-2--2-0-3-2-1-0-x-/5-5-5---2--2-0-3-2-1-0-2-3-2-1--2-2-0-3-2-1-0-0--0--0--2--------
                                                                           *Let ring
[ Tab from: http://www.guitartabs.cc/tabs/g/green_jelly/carnage_rules_tab.html ]
Verse Riff palm mute all   End verse/intro pre-chorus  
|-------------------------------------------------------| |-----------------------------------
|-------------------------------------------------------| |-----------------------------------
|-------------------------------------------------------| |-----------------------------------
|-------------------------------------------------------| |-----------------------------------
|-3-/4-x-3-/4-x-3-/5-5/3-x-3/4-44-22-x-3/4-3/4-4444-2222| |-2--2-2----------------------------
|-1-/2-x-1-/2-x-1-/3-3/1-x-1/2-22-00-x-1/2-1/2-2222-0000| |-0--0-0----------------------------
                             pm..

Pre-chorus                  pm..............
|--------------------------------------------------
|--------------------------------------------------
|--------------------------------------------------
|-4-4-4-x------------------------------------------
|-2-2-2-x-2-2-2--x-x-5-5-5--x-4--4-4-2-4-5-4-5-4-2-
|---------0-0-0--x-x-3-3-3--x-2--2-2-0-2-3-2-3-2-0-

The Chorus is just the Opening Riff

Well...that should be the entire song, except for the ending solo (gimme a break, im only 16 :P).
You MAY recognize this riff from the popular Super Nintendo game Maximum Carnage (Carnage being
Spider-Man's new arch-nemesis).
Green Jelly/Green Jello made this song for that game.  Enjoy!
Comments