Green Day - X-kid Chords & Tabs

 

X-kid Chords & Tabs

Green Day Chords & Tabs

Version: 1 Type: Tab 0 ratings
1 star 2 stars 3 stars 4 stars 5 stars
comments

X-kid Tab

Note: this is not the whole song. This is the preview from the Uno Dos Tre behind 
the scenes video. The whole song has not been released as of now.

I didn't take the time to write out the correct strumming pattern
for some parts, but it's easy to figure it out. Enjoy :)



Intro

e|-------------------------------------|
B|-------------------------------------|
G|-9---99---9---99---9---99---9---99---| 
D|-9---99---9---99---9---99---9---99---| 
A|-7---77---x---xx---x---xx---0---00---|
E|----------9---99---7---77------------|


Verse

e|-------------------------------------|
B|-------------------------------------|
G|-9---99---9---99---9---99---9---99---| 
D|-9---99---9---99---9---99---9---99---| 
A|-7---77---x---xx---x---xx---0---00---|
E|----------9---99---7---77------------|
 

e|-------------------------------------|
B|-------------------------------------|
G|-9---99---9---99---9---99---9---99---| 
D|-9---99---9---99---9---99---9---99---| 
A|-7---77---x---xx---x---xx---0---00---|
E|----------9---99---7---77------------|
  
[ Tab from: http://www.guitartabs.cc/tabs/g/green_day/x_kid_tab.html ]
e|-------------------------------------|
B|-------------------------------------|
G|----------4---44---6---66------------|
D|-2---22---4---44---6---66---7---77---|
A|-2---22---2---22---4---44---7---77---|
E|-0---00---------------------5---55---|

  
e|-------------------------------------------|
B|-------------------------------------------|
G|-9---99---9---99---9---99------------------| 
D|-9---99---9---99---9---99---7777777777---9-| 
A|-7---77---x---xx---x---xx---7777777777---9-|
E|----------9---99---7---77---5555555555---7-|


Chorus


e|--------------------------------------|
B|--------------------------------------|
G|---------44444---66666----------------|
D|-22222---44444---66666----77777-------|
A|-22222---22222---44444----77777-------|
E|-00000--------------------55555-------|


e|--------------------------------------------------|
B|--------------------------------------------------|
G|---------44444---66666----------------------------|
D|-22222---44444---66666---7777777777---9-----------|
A|-22222---22222---44444---7777777777---9-----------|
E|-00000-------------------5555555555---7-----------|


Verse 2

e|-------------------------------------|
B|-------------------------------------|
G|-9---99---9---99---9---99---9---99---| 
D|-9---99---9---99---9---99---9---99---| 
A|-7---77---x---xx---x---xx---0---00---|
E|----------9---99---7---77------------|
Comments