Green Day - Wow Thats Loud Chords & Tabs

 

Wow Thats Loud Chords & Tabs

Green Day Chords & Tabs

Version: 1 Type: Tab 0 ratings
1 star 2 stars 3 stars 4 stars 5 stars
comments

Wow Thats Loud Tab

   
Wow! That's Loud
Green Day- DOS
Release Date: 11/13/12
nolen.drew@yahoo.com

I'll add the solo eventually

Intro

e--------7-9-11-12-11-12-11-9-7-----|
b----9-11----------------------11~--|
g-11--------------------------------|
d-----------------------------------|
a-----------------------------------|
E-----------------------------------|

e---------------------------------|
b---------------------------------|
g---------------------------------|
d-4-4-4-4-4-4-4-4-4-4-4-4-4-4-4-4-|
a-4-4-4-4-4-4-4-4-4-4-4-4-4-4-4-4-|
E-2-2-2-2-2-2-2-2-2-2-2-2-2-2-2-2-|

Verse 1

e--------------------------------|
b--------------------------------|
g-------------4------------------|
d-4-----------4-(x16)---4--------|
a-4-(x32)-----2---------4-(x16)--|
E-2---------------------2--------|

Prechorus

e-----------------------------------------------------------------|
b-----------------------------------------------------------------|
g-----------------------------------------------------------------|
d-7-7-7-7-7-7-7-7-4-4-4-4-4-4-4-4-7-7-7-7-7-7-7-7-4-4-4-4-4-4-4-4-|
a-7-7-7-7-7-7-7-7-4-4-4-4-4-4-4-4-7-7-7-7-7-7-7-7-4-4-4-4-4-4-4-4-|
E-5-5-5-5-5-5-5-5-2-2-2-2-2-2-2-2-5-5-5-5-5-5-5-5-2-2-2-2-2-2-2-2-|

Chorus

e------------------------------------------------------------------|
b------------------------------------------------------------------|
g-4-4-4-4-4-4-4-4-4-4-4-4-4-4/5-5/6-6-6-6-6-6-6-6-6-6-6-6-6-6-6-6--|
d-4-4-4-4-4-4-4-4-4-4-4-4-4-4/5-5/6-6-6-6-6-6-6-6-6-6-6-6-6-6-6-6--|
a-2-2-2-2-2-2-2-2-2-2-2-2-2-2/3-3/4-4-4-4-4-4-4-4-4-4-4-4-4-4-4-4--|
E------------------------------------------------------------------|


Preverse

e--------7-9-11-12-11-12-11-9-7-----|
b----9-11----------------------11~--|
g-11--------------------------------|
d-----------------------------------|
a-----------------------------------|
E-----------------------------------|

Verse 2

e--------------------------------|
b--------------------------------|
g-------------4------------------|
d-4-----------4-(x16)---4--------|
a-4-(x32)-----2---------4-(x16)--|
E-2---------------------2--------|


Prechorus

e-----------------------------------------------------------------|
b-----------------------------------------------------------------|
g-----------------------------------------------------------------|
d-7-7-7-7-7-7-7-7-4-4-4-4-4-4-4-4-7-7-7-7-7-7-7-7-4-4-4-4-4-4-4-4-|
a-7-7-7-7-7-7-7-7-4-4-4-4-4-4-4-4-7-7-7-7-7-7-7-7-4-4-4-4-4-4-4-4-|
E-5-5-5-5-5-5-5-5-2-2-2-2-2-2-2-2-5-5-5-5-5-5-5-5-2-2-2-2-2-2-2-2-|

Chorus

e------------------------------------------------------------------|
b------------------------------------------------------------------|
g-4-4-4-4-4-4-4-4-4-4-4-4-4-4/5-5/6-6-6-6-6-6-6-6-6-6-6-6-6-6-6-6--|
d-4-4-4-4-4-4-4-4-4-4-4-4-4-4/5-5/6-6-6-6-6-6-6-6-6-6-6-6-6-6-6-6--|
a-2-2-2-2-2-2-2-2-2-2-2-2-2-2/3-3/4-4-4-4-4-4-4-4-4-4-4-4-4-4-4-4--|
E------------------------------------------------------------------|

Presolo

Guitar One:
e--------7-9-11-12-11-12-11-9-7-----|
b----9-11----------------------11~--|
g-11--------------------------------|
d-----------------------------------|(x3)
a-----------------------------------|
E-----------------------------------|
[ Tab from: http://www.guitartabs.cc/tabs/g/green_day/wow_thats_loud_tab.html ]
Guitar Two (Starts at 1:32)
e-----------------------------------|
b-----------------------------------|
g-----------------------------------|
d-4---------------------------------|
a-4-(x32)---------------------------|
E-2---------------------------------|

Solo:
e-------------------------------------------------------------|
b-------------------------------------------------------------|
g-4-4-4-4-4-4-4-4-4-4-4-4-4-4---------------------------------|
d-4-4-4-4-4-4-4-4-4-4-4-4-4-4-4-4-4-4-4-4-4-4-4-4-4-4-4-4-4-4-|
a-2-2-2-2-2-2-2-2-2-2-2-2-2-2-4-4-4-4-4-4-4-4-4-4-4-4-4-4-4-4-|
E-----------------------------2-2-2-2-2-2-2-2-2-2-2-2-2-2-2-2-|

e-------------------------------------------------------------------|
b-------------------------------------------------------------------|
g-4-4-4-4-4-4-4-4-4-4-4-4-4-4/5-5/6-6-6-6-6-6-6-6-6-6-6-6-6-6-6-6---|
d-4-4-4-4-4-4-4-4-4-4-4-4-4-4/5-5/6-6-6-6-6-6-6-6-6-6-6-6-6-6-6-6---|
a-2-2-2-2-2-2-2-2-2-2-2-2-2-2/3-3/4-4-4-4-4-4-4-4-4-4-4-4-4-4-4-4---|
E-------------------------------------------------------------------|

e--------------------------------------------------------------------|
b--------------------------------------------------------------------|
g--------------------------------------------------------------------|
d-4------------------------------------------------------------------|
a-4------------------------------------------------------------------|
E-2-2~~~~--------------------7/6/7/9~~~/12~~/7~~~/9~/12~~12~~12~~7~~-|

Verse 3
e-/---/---/---/-------------------------------------------/---/---/---/
b-/---/---/---/-------------------------------------------/---/---/---/
g-/---/---/---/-------------------------------------------/---/---/---/
d-/---/---/---/-------------------------------------------/---/---/---/
a-/---/---/---/-------------------------------------------/---/---/---/
E-/---/---/---/---2~~~~~~~~~~~~~~~~~/7~~~~~~~~~~~/2~~~~~~-/---/---/---/
   slide                                                      slide

Prechorus


e-----------------------------------------------------------------|
b-----------------------------------------------------------------|
g-----------------------------------------------------------------|
d-7-7-7-7-7-7-7-7-4-4-4-4-4-4-4-4-7-7-7-7-7-7-7-7-4-4-4-4-4-4-4-4-|
a-7-7-7-7-7-7-7-7-4-4-4-4-4-4-4-4-7-7-7-7-7-7-7-7-4-4-4-4-4-4-4-4-|
E-5-5-5-5-5-5-5-5-2-2-2-2-2-2-2-2-5-5-5-5-5-5-5-5-2-2-2-2-2-2-2-2-|

Chorus

e------------------------------------------------------------------|
b------------------------------------------------------------------|
g-4-4-4-4-4-4-4-4-4-4-4-4-4-4/5-5/6-6-6-6-6-6-6-6-6-6-6-6-6-6-6-6--|
d-4-4-4-4-4-4-4-4-4-4-4-4-4-4/5-5/6-6-6-6-6-6-6-6-6-6-6-6-6-6-6-6--|
a-2-2-2-2-2-2-2-2-2-2-2-2-2-2/3-3/4-4-4-4-4-4-4-4-4-4-4-4-4-4-4-4--|
E------------------------------------------------------------------|

Extended Ending

e--------7-9-11-12-11-12-11-9-7-----|
b----9-11----------------------11~--|
g-11--------------------------------|
d-----------------------------------|
a-----------------------------------|
E-----------------------------------|


e---------------------------------|
b---------------------------------|
g---------------------------------|
d-4-4-4-4-4-4-4-4-4-4-4-4-4-4-4-4-|
a-4-4-4-4-4-4-4-4-4-4-4-4-4-4-4-4-|
E-2-2-2-2-2-2-2-2-2-2-2-2-2-2-2-2-|

Repeat till the ending :)
Comments