Green Day - Worry Rock Chords & Tabs

 

Worry Rock Chords & Tabs

Green Day Chords & Tabs

Version: 1 Type: Tab 0 ratings
1 star 2 stars 3 stars 4 stars 5 stars
comments

Worry Rock Tab



WORRY ROCK
Green Day
Tabbed by KoRny Freak 

verse
|-----------------------------------------------------------------
|-----------------------------------------------------------------
|-9-9-9-9-9-9-9-9-4-4-4-4-4-4-4-4-----------------9-9-9-9-9-9-9-9-
|-9-9-9-9-9-9-9-9-4-4-4-4-4-4-4-4-7-7-7-7-7-7-7-7-9-9-9-9-9-9-9-9-
|-7-7-7-7-7-7-7-7-2-2-2-2-2-2-2-2-7-7-7-7-7-7-7-7-7-7-7-7-7-7-7-7-
|---------------------------------5-5-5-5-5-5-5-5-----------------

-----------------------------------------------------------------|
-----------------------------------------------------------------|
-------------------------------------------------4-4-4-4-4-4-4-4-|
-7-7-7-7-7-7-7-7-2-2-2-2-2-2-2-2-7-7-7-7-7-7-7-7-4-4-4-4-4-4-4-4-|
-7-7-7-7-7-7-7-7-2-2-2-2-2-2-2-2-7-7-7-7-7-7-7-7-2-2-2-2-2-2-2-2-|
-5-5-5-5-5-5-5-5-0-0-0-0-0-0-0-0-5-5-5-5-5-5-5-5-----------------|

chorus
|-----------------------------------------------------------------
|-----------------------------------------------------------------
|-6-6-6-6-6-6-6-6-------------------------------------------------
|-6-6-6-6-6-6-6-6-6-6-6-6-6-6-6-6-7-7-7-7-7-7-7-7-2-2-2-2-2-2-2-2-
|-4-4-4-4-4-4-4-4-6-6-6-6-6-6-6-6-7-7-7-7-7-7-7-7-2-2-2-2-2-2-2-2-
|-----------------4-4-4-4-4-4-4-4-5-5-5-5-5-5-5-5-0-0-0-0-0-0-0-0-
[ Tab from: http://www.guitartabs.cc/tabs/g/green_day/worry_rock_tab.html ]
-----------------------------------------------------------------|
-----------------------------------------------------------------|
-6-6-6-6-6-6-6-6---------------------------------4-4-4-4-4-4-4-4-|
-6-6-6-6-6-6-6-6-6-6-6-6-6-6-6-6-4-4-4-4-4-4-4-4-4-4-4-4-4-4-4-4-|
-4-4-4-4-4-4-4-4-6-6-6-6-6-6-6-6-4-4-4-4-4-4-4-4-2-2-2-2-2-2-2-2-|
-----------------4-4-4-4-4-4-4-4-2-2-2-2-2-2-2-2-----------------|

solo
|--------------------------------------------------------------
|--------------------------------------------------------------
|--------------------------------------------------------------
|--------------------------------------------------------------
|-------------2-------/6---4---2----0---4---2---0----2---------
|-0-----4-5--------4-----------------------------------5-4-----



D--------------------------------------------------------------
A-----4---2--------2-------------------------------------------
E-5-----------5--------4---0--------5---5---5---4----4---2-----

------------------------------------------------------------------
-5-5-5-5-5-4-4-4--5/7---5-5-0-2-2-2-0-2-2-2-0-2-2-4-2---0-0-0-2-2-
------------------------------------------------------------------
------------------------------------------------------------------
------------------------------------------------------------------
------------------------------------------------------------------

----------------------------------------------/7-7-5-5-4-4-2\-|
-2-0-2-2-2-0-2-2-4-2---0-0---2-2-4-4-5-5-5-5-5/7-7-5-5-4-4-2\-|
--------------------------------------------------------------|
--------------------------------------------------------------|
--------------------------------------------------------------|
--------------------------------------------------------------|


Comments