Green Day - Worry Rock Chords & Tabs

 

Worry Rock Chords & Tabs

Green Day Chords & Tabs

Version: 1 Type: Bass Tab 2 ratings
1 star 2 stars 3 stars 4 stars 5 stars
comments

Worry Rock Bass Tab

Song: Worry Rock
Artist: Green Day
Album: Nimrod
Intro/Bridge
G-------------------------------------------
D-------------------------------------------
A--0-0-0-0-0-----------0-0-0-0-0-2-2-2-2-2--
E------------0-0-0-0-0----------------------
Verse/Solo
G-------------------------------------------
D-------------------------------------------
A------------2-2-2-2-2-0-0-0-0-0------------
E--0-0-0-0-0---------------------0-0-0-0-0--
G-------------------------------------------
D-------------------------------------------
A--0-0-0-0-0-----------0-0-0-0-0-2-2-2-2-2--
E------------0-0-0-0-0----------------------
Chorus
G----------------------------------------------------
D-----------------------------------------6h7p6-4----
A--4-6h7p6-4-----------------4-6h7p6-4--7---------7--
E-------------7-4-6h7p6-4--5-------------------------
G-------------------------------------------
D--------------------------4-4-4-4----------
A--4-6h7p6-4-----------------------2-2-2-2--
E-------------7-4-6h7p6-4-------------------
Post-Chorus
G-------------------------------------------
D-------------------------------------------
A------------2-2-2-2-2-0-0-0-0-0------------
E--0-0-0-0-0---------------------0-0-0-0-0--
G------------------------------------------------
D------------------------------------------------
A--0-0-0-0-0------------0----0----0--------------
E------------0-0-0-0-0--------------0-0-0-0-0-0--
Outro
G-------------------------------------------
D-------------------------------------------
A------------2-2-2-2-2-0-0-0-0-0------------
E--0-0-0-0-0---------------------0-0-0-0-0--
						  X3
G-----------------------|---------------------------|
D-----------------------|---------------------------|
A--0-0-0-0-0------------|--0----0----0--------------|
E------------0-0-0-0-0--|--------------0-0-0-0-0-0--|
Intro X1
Verse X1
Chorus X1
Post-Chorus X1
Solo X2
Chorus X1
Bridge X1
Outro X1
This tab was created by Christian Mangs.

[ Tab from: http://www.guitartabs.cc/tabs/g/green_day/worry_rock_btab.html ]
Comments