Green Day - Why Do You Want Him Chords & Tabs

 

Why Do You Want Him Chords & Tabs

Green Day Chords & Tabs

Version: 4 Type: Tab 0 ratings
1 star 2 stars 3 stars 4 stars 5 stars
comments

Why Do You Want Him Tab

   
Tabbed by:Sam Champnes
Email: schampness@msn.con

Tuning: 1 Hole Step Down

e|-0-0-0-0-0--(0)-0-0-/----0-0------0-----0-------0-------0------0-----0---|
B|-5-5-5-5-5--(5)-5-5-/-9--9-9--10-10-\-9-9-/-10-10-/-12-12-\-10-10--9-9---|
G|-------------------------------------------------------------------------|
D|-------------------------------------------------------------------------|
A|-------------------------------------------------------------------------|
E|-------------------------------------------------------------------------|


e|-----0--0---0---0--0-0-------0--0-0-0-0---0------0-0-0-0--0----0----|
B|-12--12-12-12---9--9-9-/-10--9--5-5-5-5-\-3-/-5--5-5-5-5--3-5--5----|
G|--------------------------------------------------------------------|
D|--------------------------------------------------------------------|
A|--------------------------------------------------------------------|
E|--------------------------------------------------------------------|
[ Tab from: http://www.guitartabs.cc/tabs/g/green_day/why_do_you_want_him_tab_ver_4.html ]
e|----------------------------12-12-----12-12------12-12-----12-12--------|
B|-0-----------------12-------12-12-----12-12------12-12-----12-12--------|
G|-----2p-0----------12-------------14b-------14b--------14b--------12----|
D|-----------2p-0--------14-----------------------------------------------|
A|------------------------------------------------------------------------|
E|------------------------------------------------------------------------|

e|--------------------------------------------------------------------------|
B|-15---15---15----15---15---15---15-------15---12-12-----------------------|
G|-14b--14b--14b---12---14b--14---12-/-14--12---12-12--14--12------12--14b--|
D|-------------------------------------------------------------14-----------|
A|--------------------------------------------------------------------------|
E|--------------------------------------------------------------------------|

e|-----12-----------12---------12----------12----------12---12-12---|
B|-12-----------12----------12----------12----------12--------------|
G|---------14b----------14b--------14b----------14b-----------------|
D|------------------------------------------------------------------|
A|------------------------------------------------------------------|
E|------------------------------------------------------------------|

e|-12-12-12-12---15--12---------------------------|
B|-------------------------15---12---15b----------|
G|------------------------------------------------|
D|------------------------------------------------|
A|------------------------------------------------|
E|------------------------------------------------|



| /  slide up
| \  slide down
| h  hammer-on
| p  pull-off
| ~  vibrato
| +  harmonic
| x  Mute note
=============================================================================
Comments