Green Day - Why Do You Want Him Chords & Tabs

 

Why Do You Want Him Chords & Tabs

Green Day Chords & Tabs

Version: 3 Type: Tab 0 ratings
1 star 2 stars 3 stars 4 stars 5 stars
comments

Why Do You Want Him Tab

   
Song: Why Do you want him?
Artist: Green day
Album: 1039 Smoothed out slappy hours
Tuning: Standard (E-A-D-G-B-e)

INTRO:
e|-------------------------------------------------------|
B|-------------------------------------------------------|
G|--7-7-7-7-7-7--4-4-4-4-4-4-----------------------------|
D|--7-7-7-7-7-7--4-4-4-4-4-4--5-5-5-5-5-5--7-7-7-7-7-7-7-|x2
A|--5-5-5-5-5-5--2-2-2-2-2-2--5-5-5-5-5-5--7-7-7-7-7-7-7-|
E|----------------------------3-3-3-3-3-3--5-5-5-5-5-5-5-|

e|--------------------------------------------------------|
B|--------------------------------------------------------|
G|--7-7-7-7-7-7---2-2-2-2-2-2-----------------------------|
D|--7-7-7-7-7-7---2-2-2-2-2-2--4-4-4-4-4-4-4--5-5-5-5-5-5-|x2
A|--5-5-5-5-5-5---0-0-0-0-0-0--4-4-4-4-4-4-4--5-5-5-5-5-5-|
E|-----------------------------2-2-2-2-2-2-2--3-3-3-3-3-3-|

VERSE 1
  D         A             F#      G
  I saw you standing alone with a sad look on your face
  D         A             F#      G
  You call him on the phone it looks like he left without a trace.
  D         A             F#      G
  Tears falling out of your eyes, been living in a disguise
  D         A             F#      G
  Feeling bad for so long, you wonder if it's right or wrong.

CHORUS
e|-------------------------------------------------------|
B|-------------------------------------------------------|
G|--7-7-7-7-7-7--4-4-4-4-4-4-----------------------------|
D|--7-7-7-7-7-7--4-4-4-4-4-4--5-5-5-5-5-5--7-7-7-7-7-7-7-|x2
A|--5-5-5-5-5-5--2-2-2-2-2-2--5-5-5-5-5-5--7-7-7-7-7-7-7-|
E|----------------------------3-3-3-3-3-3--5-5-5-5-5-5-5-|
[ Tab from: http://www.guitartabs.cc/tabs/g/green_day/why_do_you_want_him_tab_ver_3.html ]
VERSE 2
D               A               F#        G
Now many days have gone by, you just and cry
D               A               F#          G
You're feeling bad for yourself, the memory will always dwell
D               A               F#         G
You're so obsessed with his love, that's why push came to shove
D               A               F#         G
Feeling bad for so long, you wonder if it's right or wrong

Repeat CHORUS

BRIDGE: ( you play the progression, wait for the lyrics to go and then play it again)

G A B G A
		It's all my own.
                I'll throw it all away.
		Because she's alone
		I've got something to say!


SOLO:
  |-------------------------5------|
  |--3~~~~------7-5-7-5-7-8---8-7--|
  |--5b7~~--5-7--------------------|
  |--------------------------------|
  |--------------------------------|
  |--------------------------------|

  |--5-5--------------------------------------------|
  |------8-8-7-7-8/10/8-7---------------------------|
  |-----------------------7--6/7-7--6/7-7--6--------|
  |------------------------------------------9-7-5--|
  |-------------------------------------------------|
  |-------------------------------------------------|

  |--/7-9-9--/7-9-9--/7-9-9-9-9-9-9--|
  |--/7-9-9--/7-9-9--/7-9-9-9-9-9-9--|
  |----------------------------------|
  |----------------------------------|
  |----------------------------------|
  |----------------------------------|

  |---------------------------------------|
  |--9------9------9----------------------|
  |--11b13--11b13--11b13--9-11-9----9-----|
  |------------------------------11---11--|
  |---------------------------------------|
  |---------------------------------------|

  |---------------------------9-9-9---|
  |---------------------------9-9-9---|
  |--10-10-12p10----10-12--11b--------|
  |--------------12-------------------|
  |-----------------------------------|
  |-----------------------------------|

  |------9-9-9--------12p11p9----9b--|
  |------9-9-9--(5x)----------12-----|
  |--11b-----------------------------|
  |----------------------------------|
  |----------------------------------|
  |----------------------------------|
Comments