Green Day - Why Do You Want Him Chords & Tabs

 

Why Do You Want Him Chords & Tabs

Green Day Chords & Tabs

Version: 1 Type: Tab 0 ratings
1 star 2 stars 3 stars 4 stars 5 stars
comments

Why Do You Want Him Tab

   
#----------------------------------PLEASE NOTE---------------------------------#
#This file is the author's own work and represents their interpretation of the #
#song. You may only use this file for private study, scholarship, or research. #
#------------------------------------------------------------------------------#

Artist - Green Day
Song - Why Do You Want Him?
Tabbed By - Mike - BlueInferno_9890@hotmail.com

Notes: This tab has the entire song except the solo. Sorry about that.

Intro / Chorus
[ Tab from: http://www.guitartabs.cc/tabs/g/green_day/why_do_you_want_him_tab.html ]
e|-----------------------------------------------|
B|-----------------------------------------------|
G|-8-8-8-8-8-8-5-5-5-5-5-------------------------|
D|-8-8-8-8-8-8-5-5-5-5-5-6-6-6-6-6-6-8-8-8-8-8-8-|
A|-6-6-6-6-6-6-3-3-3-3-3-6-6-6-6-6-6-8-8-8-8-8-8-|
E|-----------------------4-4-4-4-4-4-6-6-6-6-6-6-|

Verse

e|-------------------------------------------------|
B|-------------------------------------------------|
G|-------------------------------------------------|
D|-2-2-2-2-2-2-7-7-7-7-7-7-4-4-4-4-4-4-5-5-5-5-5-5-|
A|-2-2-2-2-2-2-7-7-7-7-7-7-4-4-4-4-4-4-5-5-5-5-5-5-|
E|-0-0-0-0-0-0-5-5-5-5-5-5-2-2-2-2-2-2-3-3-3-3-3-3-|

Bridge

e|-------------------|
B|-------------------|
G|-----4-------------|
D|-5-7-4-7-5-5-5-5-5-|
A|-5-7-2-7-5-5-5-5-5-|
E|-3-5---5-3-3-3-3-3-|
Comments