Green Day - When I Come Around Chords & Tabs

 

When I Come Around Chords & Tabs

Green Day Chords & Tabs

Version: 8 Type: Tab 0 ratings
1 star 2 stars 3 stars 4 stars 5 stars
comments

When I Come Around Tab

Green Day, When I Come Around.
Tabbed by Rich Coleman, reddman1221@hotmail.com.
  
yo i looked at tabs for this song and they were all wrong... first of all the whole song (except for the chorus is this one riff

Intro/Verse:
e:-----------------------------------------    VERSE
G:-----------------------------------------      _
B:--------66-6---88------------------------  \/ |_|
D:-44-4---66-6---88-9----------------------  /\ |_|
A:-44-4---44-4---66-9----------------------
E:-22-2-------------7----------------------
[ Tab from: http://www.guitartabs.cc/tabs/g/green_day/when_i_come_around_tab_ver_8.html ]
Chorus:
e:-----------------------------------------
B:-----------------------------------------
G:-----------44444444------------4444--4------------
D:-66666666--44444444--66666666--4444--4----------
A:-66666666--22222222--66666666--2222--2---------
E:-44444444------------44444444--------------------

Then do the Verse again (9x for the 2nd verse)
The on the Chorus do the verse riff 2 times and then the Solo

Guitar Solo:
e:2-4-4-2--2-4-4__222-2-4-4-2---------------------
B:-2-2-2-2--2----------2-2-2-2-44--4-----------

Then after solo do chorus and do verse a couple times until it ends. if u dont get it just listen to the cd for timing. its a very easy song. great for beginning power chords. any questions email me reddman1221@hotmail.com. Have Fun :)
 
:: Ultimate Guitar Archive :: 
http://www.ultimate-guitar.com 

Comments