Green Day - When I Come Around Chords & Tabs

 

When I Come Around Chords & Tabs

Green Day Chords & Tabs

Version: 4 Type: Tab 5 ratings
1 star 2 stars 3 stars 4 stars 5 stars
comments

When I Come Around Tab

pretty fun to play.U cant play this unless u look at this.

|-strum DOWN
^-Strum UP

e|-------------------------------------------------------------------|
B|-------------------------------------------------------------------|
G|------6----8----4--------------------------------------------------|
D|-4----6----8----4----X12-------------------------------------------|
A|-4-X3-4-X3-6-X3-2--------------------------------------------------|
E|-2-----------------------------------------------------------------|

e|-------------------------------------------------------------------|
B|-------------------------------------------------------------------|
G|-------------------------------------------------------------------|
D|-----------------------------|^|^||--------------------------------|
A|-6-X8-----1-X8------6--X8----111111--------------------------------|
E|-4------------------4----------------------------------------------|

e|-------------------------------------------------------------------|
B|-------------------------------------------------------------------|
G|------6----8----4--------------------------------------------------|
D|-4----6----8----4----X12-------------------------------------------|
A|-4-X3-4-X3-6-X3-2--------------------------------------------------|
E|-2-----------------------------------------------------------------|


[ Tab from: http://www.guitartabs.cc/tabs/g/green_day/when_i_come_around_tab_ver_4.html ]
e|-------------------------------------------------------------------|
B|-------------------------------------------------------------------|
G|-------------------------------------------------------------------|
D|-----------------------------|^|^||--------------------------------|
A|-6-X8-----1-X8------6--X8----111111--------------------------------|
E|-4------------------4----------------------------------------------|

e|3---5---3---5------------------------------------------------------|
B|-3-3-3-3-3---3-----------------------------------------------------|
G|--0---0---0------X2------------------------------------------------|
D|-------------------------------------------------------------------|
A|-------------------------------------------------------------------|
E|-------------------------------------------------------------------|

e|-------------------------------------------------------------------|
B|-------------------------------------------------------------------|
G|-------------------------------------------------------------------|
D|-----------------------------|^|^||--------------------------------|
A|-6-X8-----1-X8------6--X8----111111--------------------------------|
E|-4------------------4----------------------------------------------|

e|-------------------------------------------------------------------|
B|-------------------------------------------------------------------|
G|------6----8----4--------------------------------------------------|
D|-4----6----8----4----X4--------------------------------------------|
A|-4-X3-4-X3-6-X3-2--------------------------------------------------|
E|-2-----------------------------------------------------------------|

Have some fun.Oh yeah if theres any corrections email me.Hypnotized95@aim.com


Comments