Green Day - When I Come Around Chords & Tabs

 

When I Come Around Chords & Tabs

Green Day Chords & Tabs

Version: 1 Type: Tab 2 ratings
1 star 2 stars 3 stars 4 stars 5 stars
comments

When I Come Around Tab

   
                      Official Guitar Tabulature
Name: Sam
Band: Green Day
Song: When I Come Around

Tuning: Eb Bb Gb Db Ab Eb

Intro/Verse: G5         D5          E5 Em E5 C      G5            D5
         PM--|   PM-------|    PM-----|  PM            PM    PM-------|
-------|--------------------------|----------------|------------------
T------|--------------------------|----8-----5-----|------------------
------0|--------------------7-----|----9-----5-----|------------------
A---x-0|-------5------7--7--7--7-7|-9--9--9--5-----|-5-----5------7--7
----x--|-5--5--5--5-5-5--5--5--5-5|-7--7--7--3-----|-5--5--5--5-5-5--5
B---x--|-3--3--3--3-3-------------|----------------|-3--3--3--3-3-----

            E5 Em E5 C           D5    G5            D5           E5 Em
       PM----|   PM----|        PM--|  PM--|   PM-------| PM---------|
----------|--------------------------|---------------------------|-----
T---------|----8-----5--------5------|---------------------------|----8
----7-----|----9-----5--------5------|--------------------7------|----9
A---7--7-7|-9--9--9--5--------5--7-7-|-------5------7--7--7--7-7-|-9--9
----5--5-5|-7--7--7--3--------3--5-5-|-5--5--5--5-5-5--5--5--5-5-|-7--7
B---------|--------------------------|-3--3--3--3-3--------------|-----
[ Tab from: http://www.guitartabs.cc/tabs/g/green_day/when_i_come_around_tab.html ]
  E5  C          D5     Pre Chorus:  G5            D5             E5 Em
  PM             PM---|              PM---|    PM-------|  PM------|
----------------------|            |----------------------------|------
T-----5--------5------|            |----------------------------|----8-
------5--------5------|            |---------------------7------|----9-
A--9--5--------5--7-7-|            |--------5------7--7--7--7-7-|-9--9-
---7--3--------3--5-5-|            |--5--5--5--5-5-5--5--5--5-5-|-7--7-
B---------------------|            |--3--3--3--3-3--------------|------

  E5  C        Chorus:   A5                       C
  PM
-----------------------||------------------------------------------------|
T-----5---------5------||-------------------------5--5--5--5--5--5--5--5-|
------5---------5--(0)-||-2--2--2--2--2--2--2--2--5--5--5--5--5--5--5--5-|
A--9--5---------5--(0)-||-2--2--2--2--2--2--2--2--5--5--5--5--5--5--5--5-|
---7--3---------3------||-0--0--0--0--0--0--0--0--3--3--3--3--3--3--3--3-|
B----------------------||------------------------------------------------|

  A5                             C

-------------------------------|----------------|  Repeat Verse 4x then:
T------------------------------|-5--5--5--5--5--|
---2--2--2---2----2---2--2--2--|-5--5--5--5--5--|
A--2--2--2---2----2---2--2--2--|-5--5--5--5--5--|
---0--0--0---0----0---0--0--0--|-3--3--3--3--3--|
B------------------------------|----------------|

Solo:
 hold all--->
--3---------------5---------------|-3---3-------5------3---3---3--3---3
T-----3-------3-------3-------3---|-3---3-------3------3---3---3--3---3
----------0---------------0-------|-0---0---0---0------0---0---0--0---0
A---------------------------------|------------------------------------
----------------------------------|------------------------------------
B---------------------------------|------------------------------------



---3--3--5---5--5--5---3--3--3---3--3---|----------------------------------|
T--3--3--3---3--3--3---3--3--3---3--3---|------5----5----5-----------------|
---0--0--0---0--0--0---0--0--0---0--0---|/4----4----4---45-----/(15)-------|
A---------------------------------------|---------------\/-----------------|
----------------------------------------|----------------------------------|
B---------------------------------------|-----------------------------(12)\|
Comments