Green Day - When I Come Around Chords & Tabs

 

When I Come Around Chords & Tabs

Green Day Chords & Tabs

Version: 1 Type: Chords 0 ratings
1 star 2 stars 3 stars 4 stars 5 stars
comments

When I Come Around Chords

   
#----------------------------------PLEASE NOTE---------------------------------#
#This file is the author's own work and represents their interpretation of the #
#song. You may only use this file for private study, scholarship, or research. #
#------------------------------------------------------------------------------##
From: 3EV1@QUCDN.QUEENSU.CA
Subject:      When I Come Around by Green Day

All the best songs on album we're tabbed already, but here's one that's really
  fun to play...Turn down your tone and crank the distortion:

|--------------------------------------------
|--------------------------------------------   The rhythm changes later, but
|--------------------------------------------      it's not hard to work out.
|------4------4--------11-------13------9----
|----4-4------4--------11-------13------9----
|--------2-2--2----9-9--9----11-11----7-7----


Chorus:    |---------------------------------
           |---------------------------------
           |---------------------------------
           |----6-6-6-6-6-6-6-6/-9-9-9-9-9---  etc.
           |----6-6-6-6-6-6-6-6/-9-9-9-9-9---
           |----4-4-4-4-4-4-4-4/-7-7-7-7-7---

-After the 2nd chorus add this little riff which is strangly reminiscent of
  "Today":
          |----------------------------------------------------
          |----------------------------------------------------
          |-11----11----13----13----------11----11-------------  or something
          |----11----11----11----11----13----13----------------    like that
          |----------------------------------------------------
          |----------------------------------------------------

-  And there you go.  take 'er easy...

    3ev1@qucdn.QueensU.CA   (Van Vekris)



From: rw8063@csc.albany.edu (Roland W)
Subject: CRD green day, when i come around

neat chords, neat melody.  chords are played in barre style (except
for the a chord in the chorus).

when i come around, green day
[ Tab from: http://www.guitartabs.cc/tabs/g/green_day/when_i_come_around_crd.html ]
G		D		E		C
	    i heard you crying loud
	    all the way across town
		etc.

chorus
A			C
	no time to search the world around
	'cause you know where i'll be found
					when i come around

i don't know the solo, but it kinda sounds like the intro to 'today'
by smashing pumpkins.

roland
-- 
roland					pgp key available through finger
rw8063@rachel.albany.edu			rolandw@bart.albany.edu

From: mic@seanet.com (Michael Cramer)
Subject: Re: TAB:    greenday      " When I come around"

Sagar Vaidya (svaidya@nextlab10.calstatela.edu) wrote:
: This is what I saw off of SNL:

: Main Riff: 
:    
:                    I saw you coming round
: 	 x   x  G         x  x  D       x  Em    C 

: Chorus:
:    ...that makes the    ..world go round
: 	A  A  A  A          C  C  C  C 



:      On the    x    just Palm mute.
:      On the solo just bar the e,b,g strings at the 3rd fret and
:      apreggiate them and use pinky to play 5 or 6 on the e string
:      Then it look like the Em chord and then the A but I'm, not sure.

: G:
: 		 --4-
:  	         --5-
: 	         --5-
:               (E)--3-

: D:
:     --7-
:     --7-
:     --7-
:     --5-
:     --x-

: Em:   --8-
:       --9-
:       --9-
:       --7-
:       --x-

: A:   --2-
:      --2-
:      --0-
:      --x-

: C:   --5-
:      --5-
:      --5-
:      --3-
:      --x-

:    ( you know, its a bitch to tab this all in

I think he means the solo is like this

-3-----5-----3-----5-----3--3-3-3-5-3-5-3-5-3-----
---3-----3-----3-----3----3-3-3-3-3-3-3-3-3-3/5b6
-----0-----0-----0-----0---00-0-0-0-0-0-0-0-0---
-------------------------------------------------
-------------------------------------------
--------------------------------
( and the lyrics are like "No time to chase the world around , cuase ya 
know where I'll be found! when i come around"
if you care..

Comments