Green Day - When I Come Around (correct) Chords & Tabs

 

When I Come Around (correct) Chords & Tabs

Green Day Chords & Tabs

Version: 1 Type: Tab 3 ratings
1 star 2 stars 3 stars 4 stars 5 stars
comments

When I Come Around (correct) Tab

   
Standerd Tuning ( E A D G B E )


|-----------------------------------------------------------|
|-----------------------------------------------------------|
|-------------6-----8---4-----------------------------------|
|-----4-------6-----8---4-----------------------------------|        Do This 12 Times
|-----4---4-4-4---6-6---2-----------------------------------|
|-2-2-2-----------------------------------------------------|

|-----------------------------------------------------------|
|-----------------------------------------------------------|
|--------------------9-9-9-9-9-9-9-9-9----------------------|
|--6-6-6-6-6-6-6-6---9-9-9-9-9-9-9-9-9----------------------|
|--6-6-6-6-6-6-6-6---7-7-7-7-7-7-7-7-7----------------------|
|--4-4-4-4-4-4-4-4------------------------------------------|
         The Time That... 

|-----------------------------------------------------------|
|-----------------------------------------------------------|
|--------------------9-9-9-9-9-9----------------------------|
|--6-6-6-6-6-6-6-6---9-9-9-9-9-9----------------------------|
|--6-6-6-6-6-6-6-6---7-7-7-7-7-7----------------------------|
|--4-4-4-4-4-4-4-4------------------------------------------|
                                  When I Come Around..


|-----------------------------------------------------------|
|-----------------------------------------------------------|
|-------------6-----8---4-----------------------------------|
|-----4-------6-----8---4-----------------------------------|        Do This 12 Times
|-----4---4-4-4---6-6---2-----------------------------------|
|-2-2-2-----------------------------------------------------|


|-----------------------------------------------------------|
|--------------------9-9-9-9-9-9-9-9-9----------------------|
|--6-6-6-6-6-6-6-6---9-9-9-9-9-9-9-9-9----------------------|
|--6-6-6-6-6-6-6-6---7-7-7-7-7-7-7-7-7----------------------|
|--4-4-4-4-4-4-4-4------------------------------------------|
         No Time To Search The World Around... 

|-----------------------------------------------------------|
|-----------------------------------------------------------|
|--------------------9-9-9-9-9-9----------------------------|
|--6-6-6-6-6-6-6-6---9-9-9-9-9-9----------------------------|
|--6-6-6-6-6-6-6-6---7-7-7-7-7-7----------------------------|
|--4-4-4-4-4-4-4-4------------------------------------------|
                                  When I Come Around..

[ Tab from: http://www.guitartabs.cc/tabs/g/green_day/when_i_come_around_correct_tab.html ]
|-----------------------------------------------------------|
|-----------------------------------------------------------|
|-------------6-----8---4-----------------------------------|
|-----4-------6-----8---4-----------------------------------|   Do This Once       
|-----4---4-4-4---6-6---2-----------------------------------|
|-2-2-2-----------------------------------------------------|

|-2-------------4-----------2------4------------------------|
|---2-----2-------2----2------2------2----------------------|
|-----------------------------------------------------------|
|------4-------------4-----------4--------------------------|
|-----------------------------------------------------------|
|-----------------------------------------------------------|

|-2-------------4-------------------------------------------|
|---2-----2-------2----2---4--4--0--------------------------|
|-----------------------------------------------------------|
|------4-------------4--------------------------------------|
|-----------------------------------------------------------|
|-----------------------------------------------------------|

|-----------------------------------------------------------|
|--------------------9-9-9-9-9-9-9-9-9----------------------|
|--6-6-6-6-6-6-6-6---9-9-9-9-9-9-9-9-9----------------------|
|--6-6-6-6-6-6-6-6---7-7-7-7-7-7-7-7-7----------------------|
|--4-4-4-4-4-4-4-4------------------------------------------|
         No Time To Search The World Around... 

|-----------------------------------------------------------|
|-----------------------------------------------------------|
|--------------------9-9-9-9-9-9----------------------------|
|--6-6-6-6-6-6-6-6---9-9-9-9-9-9----------------------------|
|--6-6-6-6-6-6-6-6---7-7-7-7-7-7----------------------------|
|--4-4-4-4-4-4-4-4------------------------------------------|
                                  When I Come Around..


|-----------------------------------------------------------|
|-----------------------------------------------------------|
|-------------6-----8---4-----------------------------------|
|-----4-------6-----8---4-----------------------------------|         
|-----4---4-4-4---6-6---2-----------------------------------|
|-2-2-2-----------------------------------------------------|
                          When I Come Around

|-----------------------------------------------------------|
|-----------------------------------------------------------|
|-------------6-----8---4-----------------------------------|
|-----4-------6-----8---4-----------------------------------|         
|-----4---4-4-4---6-6---2-----------------------------------|
|-2-2-2-----------------------------------------------------|
                         When i come around



Comments