Green Day - When I Come Around Chords & Tabs

 

When I Come Around Chords & Tabs

Green Day Chords & Tabs

Version: 9 Type: Bass Tab 0 ratings
1 star 2 stars 3 stars 4 stars 5 stars
comments

When I Come Around Bass Tab

I've see so many wron version-this is the only right way to play it!!


G|------4h5p4----------------4h5-------|
D|--5-5-----------4h5p4--2-2-----------|  Verse
A|------------5-5----------------3-----|
E|-------------------------------------|


[ Tab from: http://www.guitartabs.cc/tabs/g/green_day/when_i_come_around_btab_ver_9.html ]
G|-----------------------------|
D|-----------------------------|  Chorus
A|----------33333333-----------|
E|--55555555-------------------|



G|------4h5p4----------------4h5-------|
D|--5-5-----------4h5p4--2-2-----------|  play while guitar plays solo
A|------------5-5----------------3-----|           (verse)
E|-------------------------------------|


h - hammer on
p - pull off
====================
corrections or ideas to shmu_james@web.de
Comments