Green Day - When I Come Around Chords & Tabs

 

When I Come Around Chords & Tabs

Green Day Chords & Tabs

Version: 8 Type: Bass Tab 0 ratings
1 star 2 stars 3 stars 4 stars 5 stars
comments

When I Come Around Bass Tab

                 When I come Around standard tuning
MAIN RIFF:play through hole song except during chorus

-------3/4-3----------------------
---4-4-----------3/4-3----1-1-----
-------------4-4--------------2---
----------------------------------
[ Tab from: http://www.guitartabs.cc/tabs/g/green_day/when_i_come_around_btab_ver_8.html ]
Chorus:[no time to search.....]

-----------------------------------------
-----------------------------------------
-----------2222222/4-2----------2222--2/1
--44444444-------------44444444----------

Thats it any questions or comments e-mail loui182@hotmail.com
thanx.
Comments