Green Day - When I Come Around Chords & Tabs

 

When I Come Around Chords & Tabs

Green Day Chords & Tabs

Version: 7 Type: Bass Tab 0 ratings
1 star 2 stars 3 stars 4 stars 5 stars
comments

When I Come Around Bass Tab

22-------------------------------------------------
---1/2/1---44---------66--------2-2----------------
---------------3/4/3---------4------1/2/1----------
---------------------------------------------------

[ Tab from: http://www.guitartabs.cc/tabs/g/green_day/when_i_come_around_btab_ver_7.html ]
22-------------------------------------------------
---1/2/1---44---------66--------2-2----------------
---------------3/4/3---------4------1/2/1----------
---------------------------------------------------

[ Tab from: http://www.guitartabs.cc/tabs/g/green_day/when_i_come_around_btab_ver_7.html ]

22-------------------------------------------------
---1/2/1---44---------66--------2-2----------------
---------------3/4/3---------4------1/2/1----------
---------------------------------------------------

[ Tab from: http://www.guitartabs.cc/tabs/g/green_day/when_i_come_around_btab_ver_7.html ]OVER AND OVER AND OVER


bass line


listen to the CD, then play it and u will see what i mean
e-mail me with ? or comments-------"ecko_87249@hotmail.com"
Comments