Green Day - When I Come Around Chords & Tabs

 

When I Come Around Chords & Tabs

Green Day Chords & Tabs

Version: 3 Type: Bass Tab 6 ratings
1 star 2 stars 3 stars 4 stars 5 stars
comments

When I Come Around Bass Tab

   
Tabbed By : Sam Champness
e-mail: 
Song: When I Come Around
Tuning: EADG

Verse
G|------3h-4p-3----------------------------|
D|-4-4----------------3h-4p-3----1-1p------|
A|---------------4-4-------------------2---|
E|-----------------------------------------|
[ Tab from: http://www.guitartabs.cc/tabs/g/green_day/when_i_come_around_btab_ver_3.html ]
Chorus
G|-----------------------------------||-----------------------------------|
D|---------------------------3h-4p-3-||---------------------------3h-4p-3-|
A|--------------2-2-2-2-2-2----------||--------------2-2-2-2-2-2----------|
E|-4-4-4-4-4-4-----------------------||4-4-4-4-4-4------------------------|

Ending
G|------3h-4p-3---------------------------|
D|-4-4---------------3h-4p-3----1-1p------|
A|---------------4-4------------------2---|
E|----------------------------------------|

ORDER
GUITAR INTRO
VERSE
CHORUS
VERSE
CHORUS
VERSE(OVER GUITAR SOLO)
CHORUS
ENDING
ENJOY!!!!!!!!!!!!!!!!!

| /  slide up
| \  slide down
| h  hammer-on
| p  pull-off
| ~  vibrato
| +  harmonic
| x  Mute note
===========================================================================
Comments