Green Day - When I Come Around Chords & Tabs

 

When I Come Around Chords & Tabs

Green Day Chords & Tabs

Version: 2 Type: Bass Tab 2 ratings
1 star 2 stars 3 stars 4 stars 5 stars
comments

When I Come Around Bass Tab

   
Song: When I Come Around
Artist: Green Day
Written by: Mike Dirnt
Tabbed correctly by: Chris Acosta, poomball182@hotmail.com, send any requests for songs.

This is absolutely correct except for the fact that I took a few shortcuts because I got lazy. 
Go ahead and try to make corrections, but I assure you this is correct. Anyway, (:) this means sustain or hold that note.
The "q" notes are quarter notes, "e" notes are eighth notes, and "s" are 16th notes.
Ah, yes, (/) means slide. Enjoy.

Intro
G|------3h4p3----|
D|-44------------|
A|---------------|
E|---------------|
   ss   s s s

[ Tab from: http://www.guitartabs.cc/tabs/g/green_day/when_i_come_around_btab_ver_2.html ]
Verse
G|------3h4p3-----------------------3h4-------|
D|-4-4---------4-------3h4p3----1-------------|
A|-----------------4-4-------4-----------2:-2-|   Listen to song for amount of repeat, its like 10 or 12
E|--------------------------------------------|
   e e  s s s  s   e e s s s s  e   e e  q  e
Last repeat of verse
E|....----3h4-----------|
D|....--1---------------|
A|....4--------2:/14/2--|
E|....------------------|
      s e e e  q    e
Chorus
G|-----------------------------------------|------------------------|
D|---------------------------------4h6p4---|------------------------|
A|---------------------------------------4-|------------------------|
E|-4-44-4-44-4-44-4-6-7-77-7-77-7----------|-4-44-4-44-4-44-4-6-7:--|
   e ss e ss e ss e e e ss e ss e  s s e e   e ss e ss e ss e e qe
"When I come around"
G|....--------3:---------[VERSE]------|
              e   //\\
	           ||
	Play these notes in accordance to Billy's lyrics, 
listen to the track to get them right. [VERSE] means to start 
playing the verse at that point of time, for the confused people out there.

During the Bridge/Solo, play the verse riff, again slide up and down into the chorus.

Chorus x2
Verse x1

Outro
G|------3h4p3-----------------------3h4----------------|
D|-4-4--------4--------3h4p3----1----------------------|
A|-----------------4-4-------4-----------2: 
Comments