Green Day - When I Come Around Chords & Tabs

 

When I Come Around Chords & Tabs

Green Day Chords & Tabs

Version: 12 Type: Bass Tab 0 ratings
1 star 2 stars 3 stars 4 stars 5 stars
comments

When I Come Around Bass Tab

Song: When I Come Around (#10)                               
Artist: Green Day
Album: Dookie


Bass Part

                                                                  
G||------------------|------------------|----------------3-4-3-1-|
D||------------------|------------------|------------4-4---------|
A||------------------|------------------|------------------------|
E||------------------|------------------|------------------------|


                                                        
---------3-4-3-1----------------|-----------4----------|
--4--4-4----------------3-4-3-1-|--1--1--4-------------|
-----------------4--4-4---------|----------------------|
--------------------------------|----------------------|


                                                         
---------3-4-3-1----------------|----------3-4----------|
--4--4-4----------------3-4-3-1-|--1--1--4--------------|
-----------------4--4-4---------|-----------------------|
--------------------------------|-----------------------|


                                                        
---------3-4-3-1----------------|-----------4----------|
--4--4-4----------------3-4-3-1-|--1--1--4-------------|
-----------------4--4-4---------|----------------------|
--------------------------------|----------------------|


                                                         
---------3-4-3-1----------------|----------3-4----------|
--4--4-4----------------3-4-3-1-|--1--1--4--------------|
-----------------4--4-4---------|-----------------------|
--------------------------------|-----------------------|


                                                        
---------3-4-3-1----------------|-----------4----------|
--4--4-4----------------3-4-3-1-|--1--1--4-------------|
-----------------4--4-4---------|----------------------|
--------------------------------|----------------------|


                                                         
---------3-4-3-1----------------|----------3-4----------|
--4--4-4----------------3-4-3-1-|--1--1--4--------------|
-----------------4--4-4---------|-----------------------|
--------------------------------|-----------------------|


                                                        
---------3-4-3-1----------------|-----------4----------|
--4--4-4----------------3-4-3-1-|--1--1--4-------------|
-----------------4--4-4---------|----------------------|
--------------------------------|----------------------|


                                                         
---------3-4-3-1----------------|----------3-4----------|
--4--4-4----------------3-4-3-1-|--1--1--4--------------|
-----------------4--4-4---------|-----------------------|
--------------------------------|-----------------------|


                                                        
---------3-4-3-1----------------|-----------4----------|
--4--4-4----------------3-4-3-1-|--1--1--4-------------|
-----------------4--4-4---------|----------------------|
--------------------------------|----------------------|


                                                        
---------3-4-3-1----------------|-----------4----------|
--4--4-4----------------3-4-3-1-|--1--1--4-------------|
-----------------4--4-4---------|----------------------|
--------------------------------|----------------------|


                                                      
--1--1--1--1--1--1--1--1--|--4--4--4--4--4--4--3--1--|
--------------------------|--------------------------|
--------------------------|--------------------------|
--------------------------|--------------------------|


                                                      
--1--1--1--1--1--1--1--1--|--4--4--4--4--4----4-3----|
--------------------------|--------------------------|
--------------------------|--------------------------|
--------------------------|--------------------------|


                                                        
---------3-4-3-1----------------|-----------4----------|
--4--4-4----------------3-4-3-1-|--1--1--4-------------|
-----------------4--4-4---------|----------------------|
--------------------------------|----------------------|


                                                         
---------3-4-3-1----------------|----------3-4----------|
--4--4-4----------------3-4-3-1-|--1--1--4--------------|
-----------------4--4-4---------|-----------------------|
--------------------------------|-----------------------|


                                                        
---------3-4-3-1----------------|-----------4----------|
--4--4-4----------------3-4-3-1-|--1--1--4-------------|
-----------------4--4-4---------|----------------------|
--------------------------------|----------------------|


                                                         
---------3-4-3-1----------------|----------3-4----------|
--4--4-4----------------3-4-3-1-|--1--1--4--------------|
-----------------4--4-4---------|-----------------------|
--------------------------------|-----------------------|

[ Tab from: http://www.guitartabs.cc/tabs/g/green_day/when_i_come_around_btab_ver_12.html ]
                                                        
---------3-4-3-1----------------|-----------4----------|
--4--4-4----------------3-4-3-1-|--1--1--4-------------|
-----------------4--4-4---------|----------------------|
--------------------------------|----------------------|


                                                         
---------3-4-3-1----------------|----------3-4----------|
--4--4-4----------------3-4-3-1-|--1--1--4--------------|
-----------------4--4-4---------|-----------------------|
--------------------------------|-----------------------|


                                                        
---------3-4-3-1----------------|-----------4----------|
--4--4-4----------------3-4-3-1-|--1--1--4-------------|
-----------------4--4-4---------|----------------------|
--------------------------------|----------------------|


                                                         
---------3-4-3-1----------------|----------3-4----------|
--4--4-4----------------3-4-3-1-|--1--1--4--------------|
-----------------4--4-4---------|-----------------------|
--------------------------------|-----------------------|


                                                        
---------3-4-3-1----------------|-----------4----------|
--4--4-4----------------3-4-3-1-|--1--1--4-------------|
-----------------4--4-4---------|----------------------|
--------------------------------|----------------------|


                                                        
---------3-4-3-1----------------|-----------4----------|
--4--4-4----------------3-4-3-1-|--1--1--4-------------|
-----------------4--4-4---------|----------------------|
--------------------------------|----------------------|


                                                      
--1--1--1--1--1--1--1--1--|--4--4--4--4--4--4--3--1--|
--------------------------|--------------------------|
--------------------------|--------------------------|
--------------------------|--------------------------|


                                                      
--1--1--1--1--1--1--1--1--|--4--4--4--4--4----4-3----|
--------------------------|--------------------------|
--------------------------|--------------------------|
--------------------------|--------------------------|


                                                        
---------3-4-3-1----------------|-----------4----------|
--4--4-4----------------3-4-3-1-|--1--1--4-------------|
-----------------4--4-4---------|----------------------|
--------------------------------|----------------------|


                                                        
---------3-4-3-1----------------|-----------4----------|
--4--4-4----------------3-4-3-1-|--1--1--4-------------|
-----------------4--4-4---------|----------------------|
--------------------------------|----------------------|


                                                        
---------3-4-3-1----------------|-----------4----------|
--4--4-4----------------3-4-3-1-|--1--1--4-------------|
-----------------4--4-4---------|----------------------|
--------------------------------|----------------------|


                                                        
---------3-4-3-1----------------|-----------4----------|
--4--4-4----------------3-4-3-1-|--1--1--4-------------|
-----------------4--4-4---------|----------------------|
--------------------------------|----------------------|


                                                      
--1--1--1--1--1--1--1--1--|--4--4--4--4--4--4--3--1--|
--------------------------|--------------------------|
--------------------------|--------------------------|
--------------------------|--------------------------|


                                                      
--1--1--1--1--1--1--1--1--|--4--4--4--4--4----4-3----|
--------------------------|--------------------------|
--------------------------|--------------------------|
--------------------------|--------------------------|


                                                        
---------3-4-3-1----------------|-----------4----------|
--4--4-4----------------3-4-3-1-|--1--1--4-------------|
-----------------4--4-4---------|----------------------|
--------------------------------|----------------------|


                                                        
---------3-4-3-1----------------|-----------4----------|
--4--4-4----------------3-4-3-1-|--1--1--4-------------|
-----------------4--4-4---------|----------------------|
--------------------------------|----------------------|


                                                        
---------3-4-3-1----------------|-----------4----------|
--4--4-4----------------3-4-3-1-|--1--1--4-------------|
-----------------4--4-4---------|----------------------|
--------------------------------|----------------------|


                                                                            
---------3-4-3-1----------------|-----------4----------|------------------||
--4--4-4----------------3-4-3-1-|--1--1--4-------------|------------------||
-----------------4--4-4---------|----------------------|------------------||
--------------------------------|----------------------|------------------||


============================================================================

This is the easy version. 
Enjoy it!
Comments