Green Day - Whatsername Chords & Tabs

 

Whatsername Chords & Tabs

Green Day Chords & Tabs

Version: 7 Type: Tab 0 ratings
1 star 2 stars 3 stars 4 stars 5 stars
comments

Whatsername Tab

Alright, everthing else out there SUCKS. I know this is correct mainly because i'm a
genius, but also because i've played this song live before. Alight, here goes:

Verse 1 (all palm-muted)(x8 means eigth notes)

Guitar1
E--------------|
B--------------|
G-7-----4------|
D-7x8---4x8----|x4
A-5-----2------|
E--------------|

Guitar1
E----------------------------------|  --------------|
B----------------------------------|  --------------|
G---------------------4-----2------|  --------------|
D---5-----------4-----4x4---2x4----|x3---5-----7----|
A---5x8---5x8---4x8---2-----0------|  ---5x8---7x8--|
E---3-----5-----2------------------|  ---3-----5----|

Guitar1
E---------------------------|
B---------------------------|
G--7-----4-----7-----4------|
D--7x8---4x8---7x8---4x8----|
A--5-----2-----5-----2------|
E---------------------------|

Guitar2
E------------------------------------------------|
B--3-----5/7-----3------0-2-3--------------------|
G------------------------------------------------|
D------------------------------------------------|x2
A------------------------------------------------|
E------------------------------------------------|

Verse 2

Guitar1
E--------------|
B--------------|
G-7-----4------|
D-7x8---4x8----|x4
A-5-----2------|
E--------------|

Guitar1
E----------------------------------|  --------------|
B----------------------------------|  --------------|
G---------------------4-----2------|  --------------|
D---5-----------4-----4x4---2x4----|x3---5-----7----|
A---5x8---5x8---4x8---2-----0------|  ---5x8---7x8--|
E---3-----5-----2------------------|  ---3-----5----|

Guitar2
[ Tab from: http://www.guitartabs.cc/tabs/g/green_day/whatsername_tab_ver_7.html ]
Guitar1 (the version Billy Joe plays can be modified to make this)
E-----------------------|--------|----------------------|---------|
B---23---23--23--23-----|--------|---23---23---23--23---|---------|
G--2----2---2-----------|--4-----|--2----2----2---------|--4------|
D-0---------------------|--4x16--|-0--------------------|--4x16---|
A-----------------------|--2-----|----------------------|--2------|
E-----------------------|--------|----------------------|---------|

Solo:

E------------------------------------------|
B------------------------------------------|
G-----767------767-6-2-333-6-33-4444--646--|
D--00------000-----------------------------|x2
A------------------------------------------|
E------------------------------------------|

Chorus
E------------------------|
B------------------------|
G------------------------|
D--5---------7-----------|x2
A--5x8--5x8--7x8---5x8---|
E--3----5----5-----5-----|

E----------------------------|
B----------------------------|
G-------------------4----2---|
D--5-----------4----4x4--2x8-|x2
A--5x8----5x8--4x8--2----0---|
E--3------5----2-------------|

(played staccato)
E------------------------------------------|
B------------------------------------------|
G------------------------------4----2------|x2
D--5-5-5-5-----------4-4-4-4---4x4--2x4----|
A--5-5-5-5--5-5-5-5--4-4-4-4---2----0------|
E--3-3-3-3--5-5-5-5--2-2-2-2---------------|

E-----------------|   ----------|
B-----------------|   ----------|
G-----------------|   ----------|
D--5----7---------|x3 -5----7---|
A--5x8--7x5--5x3--|   -5x8--7x8-|
E--3----5----5----|   -3----5---|

Outro:
Guitar1
E-----------------------|
B-----------------------|
G-7-----4---------------|
D-7x8---4x8-------------|x2
A-5-----2---------------|
E-----------------------|

Guitar2 (Start playing on the second time the phrase above is played)
E-----------------------------------|
B--3-----5/7-----3------0-2-3~------|
G-----------------------------------|
D-----------------------------------|
A-----------------------------------|
E-----------------------------------|

Oh yes, i'm good.

Any comments or complaints or questions: nal1200@cox.net
Comments