Green Day - Whatsername Chords & Tabs

 

Whatsername Chords & Tabs

Green Day Chords & Tabs

Version: 4 Type: Tab 0 ratings
1 star 2 stars 3 stars 4 stars 5 stars
comments

Whatsername Tab

   
Green Day
Whatsername
American Idiot (2004)

Intro\Verse: (Drums- before guitar comes in)

    D5
e|--------------------------------------------------|
B|--------------------------------------------------|
G|--------------------------------------------------|
D|--7--7--x--x--7--7--x--x--7--7--x--x--7--7--x--x--|
A|--5--5--x--x--5--5--x--x--5--5--x--x--5--5--x--x--|
E|--------------------------------------------------|

   B5
e|--------------------------------------------------|
B|--------------------------------------------------|
G|--------------------------------------------------|
D|--4--4--x--x--4--4--x--x--4--4--x--x--4--4--x--x--|
A|--2--2--x--x--2--2--x--x--2--2--x--x--2--2--x--x--|
E|--------------------------------------------------|

Thought I ran into you, down on the street,
Then it turned out to only be a dream.

Chorus:

    G5                      A5
e|--------------------------------------------------|
B|--------------------------------------------------|
G|--------------------------------------------------|
D|--------------------------------------------------|
A|--5--5--x--x--5--5--x--x--7--7--x--x--7--7--x--x--|
E|--3--3--x--x--3--3--x--x--5--5--x--x--5--5--x--x--|

    D5                      B5
e|--------------------------------------------------|
B|--------------------------------------------------|
G|--------------------------------------------------|
D|--7--7--x--x--7--7--x--x--------------------------|
A|--5--5--x--x--5--5--x--x--9--9--x--x--9--9--x--x--|
E|--------------------------7--7--x--x--7--7--x--x--|
[ Tab from: http://www.guitartabs.cc/tabs/g/green_day/whatsername_tab_ver_4.html ]
I made a point to burn all of the photographs,
she went away and then I took a different path,
I remember the face but I can't recall the name.
Now i wonder how whatsername has been.

Verse 2 lyrics:

Seems like she disappeared without a trace,
did she ever marry old whats his face?

Interlude:

    D5                            B5
e|-----------------------------|-----------------------------------|
B|-----------------------------|-----------------------------------|
G|--7--6--7--7--7--7--6--7--7--|--4-4-4-4-4-4-4-4-4-4-4-4-4-4-4-4--|
D|--7-----------7--7-----------|--4-4-4-4-4-4-4-4-4-4-4-4-4-4-4-4--|
A|--5-----------5--5-----------|--2-2-2-2-2-2-2-2-2-2-2-2-2-2-2-2--|
E|-----------------------------|-----------------------------------|

Riff 1 (when vocals come in):
  
    G5               A5               D5               B5
e|----------------------------------------------------------------------|
B|----------------------------------------------------------------------|
G|------------------------------------7-7-7-7-7-7-7-7-------------------|
D|--5-5-5-5-5-5-5-5--7-7-7-7-7-7-7-7--7-7-7-7-7-7-7-7--9-9-9-9-9-9-9-9--|
A|--5-5-5-5-5-5-5-5--7-7-7-7-7-7-7-7--5-5-5-5-5-5-5-5--9-9-9-9-9-9-9-9--|
E|--3-3-3-3-3-3-3-3--5-5-5-5-5-5-5-5-------------------7-7-7-7-7-7-7-7--|

Remember, whatever it seems like forever ago

Repeat interlude riff

Then with riff 1:

The regrets are useless in my mind, she's in my head
(I must confess)
The regrets are useless in my mind, she's in my head 
(I must confess)
And in that darkest night, if my memory serves me right
I'll never turn back time, forgetting you but not the time.

Then just play intro riff twice.

Easy but beautiful song, and I'm sure off the accuracy of this tab.

Enjoy!
Comments