Green Day - Whatsername Chords & Tabs

 

Whatsername Chords & Tabs

Green Day Chords & Tabs

Version: 1 Type: Tab 0 ratings
1 star 2 stars 3 stars 4 stars 5 stars
comments

Whatsername Tab

GREEN DAY - WHATSERNAME

INTRO:

|-------------------------------------------------------------------|
|-------------------------------------------------------------------|
|-7-7-7-7-7-7-7-7-7-7-7-7-7-7-7-7-4-4-4-4-4-4-4-4-4-4-4-4-4-4-4-4---|
|-7-7-7-7-7-7-7-7-7-7-7-7-7-7-7-7-4-4-4-4-4-4-4-4-4-4-4-4-4-4-4-4---| 
|-5-5-5-5-5-5-5-5-5-5-5-5-5-5-5-5-2-2-2-2-2-2-2-2-2-2-2-2-2-2-2-2---|
|-------------------------------------------------------------------| x4


|------------------------------------------------------------------|     
|------------------------------------------------------------------|     
|-----------------7-7-7-7-7-7-7-7-----------------4-4-4-4-2-2-2-2--|     
|-5-5-5-5-5-5-5-5-7-7-7-7-7-7-7-7-4-4-4-4-4-4-4-4-4-4-4-4-2-2-2-2--|     
|-5-5-5-5-5-5-5-5-5-5-5-5-5-5-5-5-4-4-4-4-4-4-4-4-2-2-2-2-0-0-0-0--|    
|-3-3-3-3-3-3-3-3-----------------2-2-2-2-2-2-2-2------------------|x3   

|----------------------------------|
|----------------------------------|
|-----------------4-4-4-4-4-4-4-4--|
|-5-5-5-5-5-5-5-5-4-4-4-4-4-4-4-4--|
|-5-5-5-5-5-5-5-5-2-2-2-2-2-2-2-2--|
|-3-3-3-3-3-3-3-3------------------|

|-------------------------------------------------------------------|
|-------------------------------------------------------------------|
|-7-7-7-7-7-7-7-7-7-7-7-7-7-7-7-7-4-4-4-4-4-4-4-4-4-4-4-4-4-4-4-4---|
|-7-7-7-7-7-7-7-7-7-7-7-7-7-7-7-7-4-4-4-4-4-4-4-4-4-4-4-4-4-4-4-4---| 
|-5-5-5-5-5-5-5-5-5-5-5-5-5-5-5-5-2-2-2-2-2-2-2-2-2-2-2-2-2-2-2-2---|
|-------------------------------------------------------------------| x2


|----------------------|
|----5/7---------------|
|-7-------7--4--6--7---|
|----------------------| 
|----------------------|
|----------------------| x2 


|-------------------------------------------------------------------|
|-------------------------------------------------------------------|
|-7-7-7-7-7-7-7-7-7-7-7-7-7-7-7-7-4-4-4-4-4-4-4-4-4-4-4-4-4-4-4-4---|
|-7-7-7-7-7-7-7-7-7-7-7-7-7-7-7-7-4-4-4-4-4-4-4-4-4-4-4-4-4-4-4-4---| 
|-5-5-5-5-5-5-5-5-5-5-5-5-5-5-5-5-2-2-2-2-2-2-2-2-2-2-2-2-2-2-2-2---|
|-------------------------------------------------------------------| x2

CHORUS:

|------------------------------------------------------------------|      
|------------------------------------------------------------------|      
|-----------------7-7-7-7-7-7-7-7-----------------4-4-4-4-2-2-2-2--|      
|-5-5-5-5-5-5-5-5-7-7-7-7-7-7-7-7-4-4-4-4-4-4-4-4-4-4-4-4-2-2-2-2--|      
|-5-5-5-5-5-5-5-5-5-5-5-5-5-5-5-5-4-4-4-4-4-4-4-4-2-2-2-2-0-0-0-0--|     
|-3-3-3-3-3-3-3-3-----------------2-2-2-2-2-2-2-2------------------| x3   

|----------------------------------|
|----------------------------------|
|-----------------4-4-4-4-4-4-4-4--|
|-5-5-5-5-5-5-5-5-4-4-4-4-4-4-4-4--|
|-5-5-5-5-5-5-5-5-2-2-2-2-2-2-2-2--|
|-3-3-3-3-3-3-3-3------------------|
[ Tab from: http://www.guitartabs.cc/tabs/g/green_day/whatsername_tab.html ]
|-----------------------------------------------------------|
|-----2-3-----------2-3-------------------------------------|
|---2-----2---2---2-----2---2-----4-4-4-4-4-4-4-4-4-4-4-4---|
|-0---------0---0---------0-------4-4-4-4-4-4-4-4-4-4-4-4---| 
|---------------------------------2-2-2-2-2-2-2-2-2-2-2-2---|
|-----------------------------------------------------------| x2

|------------------------------------------------------------------|
|------------------------------------------------------------------|
|--7-7-7-6-6-6-7---7-7-7-6-6-7-----3-3-3-3-3-6-3-3-4-4-4-4-6-4-6---|
|----------------7-------------7-7---------------------------------| 
|------------------------------------------------------------------|
|------------------------------------------------------------------| x2

|------------------------------------------------------------------|
|------------------------------------------------------------------|
|-----------------7-7-7-7-7-7-7-7-----------------7-7-7-7-7-7-7-7--|
|-5-5-5-5-5-5-5-5-7-7-7-7-7-7-7-7-7-7-7-7-7-7-7-7-7-7-7-7-7-7-7-7--| 
|-5-5-5-5-5-5-5-5-5-5-5-5-5-5-5-5-7-7-7-7-7-7-7-7-5-5-5-5-5-5-5-5--|
|-3-3-3-3-3-3-3-3-----------------5-5-5-5-5-5-5-5------------------| x2


|------------------------------------------------------------------|    
|------------------------------------------------------------------|
|-----------------7-7-7-7-7-7-7-7-----------------4-4-4-4-2-2-2-2--|    
|-5-5-5-5-5-5-5-5-7-7-7-7-7-7-7-7-4-4-4-4-4-4-4-4-4-4-4-4-2-2-2-2--| 
|-5-5-5-5-5-5-5-5-5-5-5-5-5-5-5-5-4-4-4-4-4-4-4-4-2-2-2-2-0-0-0-0--|    
|-3-3-3-3-3-3-3-3-----------------2-2-2-2-2-2-2-2------------------| x2    

|------------------------------------------------------------------|
|------------------------------------------------------------------|
|-----------------7-7-7-7-------------------------4-4-4-4-2-2-2-2--|
|-5-5-5-5---------5-5-5-5---------4-4-4-4---------4-4-4-4-2-2-2-2--|
|-5-5-5-5---------5-5-5-5---------4-4-4-4---------2-2-2-2-0-0-0-0--|
|-3-3-3-3-------------------------2-2-2-2--------------------------| x2

|----------------------------------|    |------------------------------------|
|----------------------------------|    |------------------------------------|
|-------------------------7-7-7-7--|    |------------------------------------|
|-5-5-5-5-5-5-5-5-7-7-7-7-7-7-7-7--| x3 |-5-5-5-5-5-5-5-5-7-7-7-7-7-7-7-7-7--|
|-5-5-5-5-5-5-5-5-7-7-7-7-7-5-5-5--|    |-5-5-5-5-5-5-5-5-7-7-7-7-7-7-7-7-7--|
|-3-3-3-3-3-3-3-3-5-5-5-5-5--------|    |-3-3-3-3-3-3-3-3-5-5-5-5-5-5-5-5-5--| 

|-------------------------------------------------------------------|
|-------------------------------------------------------------------|
|-7-7-7-7-7-7-7-7-7-7-7-7-7-7-7-7-4-4-4-4-4-4-4-4-4-4-4-4-4-4-4-4---|
|-7-7-7-7-7-7-7-7-7-7-7-7-7-7-7-7-4-4-4-4-4-4-4-4-4-4-4-4-4-4-4-4---| 
|-5-5-5-5-5-5-5-5-5-5-5-5-5-5-5-5-2-2-2-2-2-2-2-2-2-2-2-2-2-2-2-2---|
|-------------------------------------------------------------------| x2


|----------------------|
|----5/7---------------|
|-7-------7--4--6--7---|
|----------------------|
|----------------------|
|----------------------| 

|----|
|----|
|-2--|
|-0--|
|-0--|
|----|
Comments