Green Day - Welcome To Paradise Chords & Tabs

 

Welcome To Paradise Chords & Tabs

Green Day Chords & Tabs

Version: 4 Type: Tab 0 ratings
1 star 2 stars 3 stars 4 stars 5 stars
comments

Welcome To Paradise Tab

   
note- for all green day songs guitars are tuned down 1/2 step*
(know the strumming pattern to get right sound)

[intro]
  E5          D5    A5  
1------------|---------|
2------------|---------|
3-9--9-9-9-9-|7-7-7----|
4-9--9-9-9-9-|7-7-7-7--|
5-7--7-7-7-7-|5-5-5-7--|
6------------|------5--|    repeat x3

[verse]
  E5        D5        E5        E5       E5        D5   G5 A5 B
1---------|--------|--------|-------|--------|--------|------|---|
2---------|--------|--------|-------|--------|--------|------|---|
3-9--9-9-9|7--7-7-7|9--9-9-9|9-9-9-9|9--9-9-9|7--7-7-7|------|-4-|
4-9--9-9-9|7--7-7-7|9--9-9-9|9-9-9-9|9--9-9-9|7--7-7-7|-5-5/7|-4-|
5-7--7-7-7|5--5-5-5|7--7-7-7|7-7-7-7|7--7-7-7|5--5-5-5|-5-5/7|-2-|
6---------|--------|--------|-------|--------|--------|-3-3/5|---|
                          dont strum on A5, just slide there^

  E5        D5        E5        E5       E5        D5   G5 A5 B
1---------|--------|--------|-------|--------|--------|-----|---|-----|---|
2---------|--------|--------|-------|--------|--------|-----|---|-----|---|
3-9--9-9-9|7--7-7-7|9--9-9-9|9-9-9-9|9--9-9-9|7--7-7-7|-----|-4-|-----|-4-|
4-9--9-9-9|7--7-7-7|9--9-9-9|9-9-9-9|9--9-9-9|7--7-7-7|5-5/7|-4-|5-5/7|-4-|
5-7--7-7-7|5--5-5-5|7--7-7-7|7-7-7-7|7--7-7-7|5--5-5-5|5-5/7|-2-|5-5/7|-2-|
6---------|--------|--------|-------|--------|--------|3-3/5|---|3-3/5|---|
                         dont strum on A5, just slide there^---------^
[ Tab from: http://www.guitartabs.cc/tabs/g/green_day/welcome_to_paradise_tab_ver_4.html ]
[chorus]
  E5          G5           A5         C5          E5          G5 
1------------|-----------|-----------|-----------|-----------|-----------|
2------------|-----------|-----------|-----------|-----------|-----------|
3-9-9-9-9-9-9|-----------|-----------|5-5-5-5-5-5|9-9-9-9-9-9|-----------|
4-9-9-9-9-9-9|5-5-5-5-5-5|7-7-7-7-7-7|5-5-5-5-5-5|9-9-9-9-9-9|5-5-5-5-5-5|
5-7-7-7-7-7-7|5-5-5-5-5-5|7-7-7-7-7-7|3-3-3-3-3-3|7-7-7-7-7-7|5-5-5-5-5-5|
6------------|3-3-3-3-3-3|5-5-5-5-5-5|-----------|-----------|3-3-3-3-3-3|

[still chorus]
  B           B            E5         G5          A5          C5
1|-----------|-----------|-----------|-----------|-----------|-----------|
2|-----------|-----------|-----------|-----------|-----------|-----------|
3|4-4-4-4-4-4|4-4-4-4-4-4|9-9-9-9-9-9|-----------|-----------|5-5-5-5-5-5|
4|4-4-4-4-4-4|4-4-4-4-4-4|9-9-9-9-9-9|5-5-5-5-5-5|7-7-7-7-7-7|5-5-5-5-5-5|
5|2-2-2-2-2-2|2-2-2-2-2-2|7-7-7-7-7-7|5-5-5-5-5-5|7-7-7-7-7-7|3-3-3-3-3-3|
6|-----------|-----------|-----------|3-3-3-3-3-3|5-5-5-5-5-5|-----------|

[still chorus]
  E           B
1|-----------|---|
2|-----------|---|
3|9-9-9-9-9-9|-4-|
4|9-9-9-9-9-9|-4-|
5|7-7-7-7-7-7|-2-|
6|-----------|---|

(^)repeat again (including intro), then intro, then bridge(v)

[bridge]
if there is only one guitarist and you want to get the best sound for this part,
start by muting this riff then make the strum it to make the sound louder and
louder, while repeating this riff:
`bass tab for this part (0-0-0-0-3-3-3-3-2-2-2-2-1-1-1-1)
  E       G5       F#      F
1|---------------|----------------|
2|---------------|----------------|
3|1-1-1-1--------|----------------|
4|2-2-2-2-5-5-5-5|-4-4-4-4-3-3-3-3|
5|2-2-2-2-5-5-5-5|-4-4-4-4-3-3-3-3|
6|0-0-0-0-3-3-3-3|-2-2-2-2-1-1-1-1|

then repeat verse, then chorus, then finish with intro.

i hope its not confusing
Comments