Green Day - Warning Chords & Tabs

 

Warning Chords & Tabs

Green Day Chords & Tabs

Version: 8 Type: Tab 0 ratings
1 star 2 stars 3 stars 4 stars 5 stars
comments

Warning Tab

   
im pretty sure this is right, well here it goes

guitar 1:
E-|-------------------------------|
B-|-------------------------------|
G-|------------------0-0----------|
D-|----------0-0-2-4------4-2-0-0-|  thise parts a played
A-|-0-0-2-4-----------------------|  thoughout most of the
E-|-------------------------------|  song
GUITAR 2:
    A A      D D     G G  D D
E---0-0------2-2-----2-2--2-2-----|
B-|-2-2------3-3-----2-2--3-3-----|
G-|-2-2------2-2-----0-0--2-2-----|
D-|-2-2------0-0-----0-0--0-0-----|
A-|-0-0--------------2-2----------|
E-|------------------3-3----------|


guitar 1:
E-|-------------------------------|
B-|-------------------------------|
G-|------------------0-0----------|
D-|----------0-0-2-4------4-2-0-0-|
A-|-0-0-2-4-----------------------|
E-|-------------------------------|
GUITAR 2:
    A A      D D     G G  D D
E---0-0------2-2-----2-2--2-2-----|
B-|-2-2------3-3-----2-2--3-3-----|
G-|-2-2------2-2-----0-0--2-2-----|
D-|-2-2------0-0-----0-0--0-0-----|
A-|-0-0--------------2-2----------|
E-|------------------3-3----------|
[ Tab from: http://www.guitartabs.cc/tabs/g/green_day/warning_tab_ver_8.html ]
guitar 1:
E-|-------------------------------|
B-|-------------------------------|
G-|------------------0-0----------|
D-|----------0-0-2-4------4-2-0-0-|
A-|-0-0-2-4-----------------------|
E-|-------------------------------|
GUITAR 2:
    A A      D D     G G  D D
E---0-0------2-2-----2-2--2-2-----|
B-|-2-2------3-3-----2-2--3-3-----|
G-|-2-2------2-2-----0-0--2-2-----|
D-|-2-2------0-0-----0-0--0-0-----|
A-|-0-0--------------2-2----------|
E-|------------------3-3----------|


guitar 1:
E-|-------------------------------|
B-|-------------------------------|
G-|------------------0-0----------|
D-|----------0-0-2-4------4-2-0-0-|
A-|-0-0-2-4-----------------------|
E-|-------------------------------|
GUITAR 2:
    A A      D D     G G  D D
E---0-0------2-2-----2-2--2-2-----|
B-|-2-2------3-3-----2-2--3-3-----|
G-|-2-2------2-2-----0-0--2-2-----|
D-|-2-2------0-0-----0-0--0-0-----|
A-|-0-0--------------2-2----------|
E-|------------------3-3----------|


guitar 1:
E-|-------------------------------|
B-|-------------------------------|
G-|------------------0-0----------|
D-|----------0-0-2-4------4-2-0-0-|
A-|-0-0-2-4-----------------------|
E-|-------------------------------|
GUITAR 2:
    A A      D D     G G      D D
E---0-0------2-2-----2-2------2-2-|
B-|-2-2------3-3-----2-2------3-3-|
G-|-2-2------2-2-----0-0------2-2-|
D-|-2-2------0-0-----0-0------0-0-|
A-|-0-0--------------2-2----------|
E-|------------------3-3----------|
                               This...


LYRICS: this is a public surv__ice anouncemnet
         this is only a test
Comments