Green Day - Warning Chords & Tabs

 

Warning Chords & Tabs

Green Day Chords & Tabs

Version: 5 Type: Tab 0 ratings
1 star 2 stars 3 stars 4 stars 5 stars
comments

Warning Tab

   
Warning - Green Day

riff 1
guitar 1
e|---------------------------------|
B|---------------------------------|
G|-----------------0-0-------------|
D|---------0-0-2-4-----4-2-0-0-----|
A|-0-0-2-4---------------------4-2-|
E|---------------------------------|

riff 1
guitar 2
   A  D  G  D
e|-0--2--3--2-|
B|-2--3--3--3-|
G|-2--2--0--2-|
D|-2--0--0--0-|
A|-0-----2----|
E|-0-----3----|
[ Tab from: http://www.guitartabs.cc/tabs/g/green_day/warning_tab_ver_5.html ]
riff 2
guitar 1 (x2) (no guitar 2 1x, just hold A 2x)
e|---------------------------|
B|---------------------------|
G|---------------------------|
D|---------------------------|
A|-0--0-4------0--0-4-0------|
E|--------3--0----------3--0-|

intro (riff 1, 4x)
verse 1 (riff 1, 8x)
chorus (riff 1, 4x, riff 2)
intro (riff 1, 2x)
verse 2 (riff 1, 8x)
chorus (riff 1, 8x)
interlude (riff 2, 3x)
verse 3 (riff 1, 4x)
chorus (riff 1, 8x)
end (riff 1) ("this is a public service announcement...")
Comments