Green Day - Warning Chords & Tabs

 

Warning Chords & Tabs

Green Day Chords & Tabs

Version: 2 Type: Tab 2 ratings
1 star 2 stars 3 stars 4 stars 5 stars
comments

Warning Tab

this is a pretty basic song all you need to do is
listen to it to get the rythm

[ Tab from: http://www.guitartabs.cc/tabs/g/green_day/warning_tab_ver_2.html ]
|----------------------------------
|----------------------------------
|----------------------------------
|-----------------0-0--------------
|---------0-0-2-4-----4-2-0-0------   \
|-0-0-2-4--------------------4-2---    \
                                        \
you could also play it this way          \
                                         |------pay either of these thru out song then 
|--------------------------------        /      play
|--------------------------------       /
|--------------------------------      /
|--------0-0-2-4-5-5-4-2-0-0-----     /
|-0-0-2-4-------------------4-2--
|--------------------------------

|----------------
|----------------
|----------------
|----------------
|--4-------4-----
|-5-5-7-5-5-5-3-0
Comments