Green Day - Warning Chords & Tabs

 

Warning Chords & Tabs

Green Day Chords & Tabs

Version: 1 Type: Bass Tab 8 ratings
1 star 2 stars 3 stars 4 stars 5 stars
comments

Warning Bass Tab


FIG 1 (refer to song for timing)
----------------------------------------------------------------
-------------------0-2--33--2-0---------------------------------
---------0-2-3-3-------------------3-3-2-0----------------------
--3-3-----------------------------------------------------------
                           
[ Tab from: http://www.guitartabs.cc/tabs/g/green_day/warning_btab.html ]
FIG 2 (CHORUS)
----------------------------------------------------------------
----------------------------------------------------------------
--2---3----0----0---0---0------------------------------------------
-----------------------------3--------------------------------------
War-ning live with-out war-ning

(THEN REPEAT FIG 1)

Ignore that other guy who says he tabed this out even though 
he is a guitarist, his tab is totally wrong.
Comments