Green Day - Walking Contradiction Chords & Tabs

 

Walking Contradiction Chords & Tabs

Green Day Chords & Tabs

Version: 3 Type: Bass Tab 0 ratings
1 star 2 stars 3 stars 4 stars 5 stars
comments

Walking Contradiction Bass Tab

Artist:Green Day
Track:Walking Contradiction
Album:Insomniac

I've looked at the other versions of this song and none of them have the little riffs
Mike has put in. I'm guessing the guys who tabbed it before just took the notes from 
the guitar tabs. So here it is.

Intro
G:---------------------------------------|
D:------------------666666666-4-3--------|
A:---------------------------------6-4-3-|
E:-4444444444444444----------------------|
[ Tab from: http://www.guitartabs.cc/tabs/g/green_day/walking_contradiction_btab_ver_3.html ]
Verse
G:------------|
D:------------|
A:---44-------|
E:-4----22-44-|

Verse Fill
G:---------------------------------|
D:------------------44-6p4p3-------|
A:---44----------44----------6p4p3-|
E:-4----22-44--4-------------------|

Chorus
G:-------------------|  |-----------------|
D:-------------3-4-6-|x2|-----------------|x2
A:-44----------------|  |-44--------------|
E:----22-4-444-------|  |----22-4-4444444-|

Those are all the parts here's the order

Intro x1
Verse x8
Verse Fill x1
Verse x8
Chorus x1
Verse Fill x1
Verse x8
Chorus x2
Verse Fill x1
Verse x2
Comments