Green Day - Walking Alone Chords & Tabs

 

Walking Alone Chords & Tabs

Green Day Chords & Tabs

Version: 5 Type: Tab

Walking Alone Tab

e|---------------------------------------------------------------------------|
B|--8---------------------------------------------------------10-------------|
G|-----7-----9b11r9---------9------12------9----------12----------11---------|
D|--------9----------9--10-----10------10-----10--12------12----------12-----|
A|---------------------------------------------------------------------------|
E|---------------------------------------------------------------------------|

e|---------------------------------------------------------------------------|
B|--8---------------------------------------------------------10-------------|
G|-----7-----9b11r9---------9------12------9----------12----------11---------|
D|--------9----------9--10-----10------10-----10--12------12----------12-----|
A|---------------------------------------------------------------------------|
E|---------------------------------------------------------------------------|
[ Tab from: http://www.guitartabs.cc/tabs/g/green_day/walking_alone_tab_ver_5.html ]