Green Day - Walking Alone Chords & Tabs

 

Walking Alone Chords & Tabs

Green Day Chords & Tabs

Version: 2 Type: Tab 0 ratings
1 star 2 stars 3 stars 4 stars 5 stars
comments

Walking Alone Tab

   
Green Day, Walking Alone.
 Tabbed by Sebastian Lapidus, sebaslap@yahoo.com.
  
Intro:

Gr. 1 (Distorted)
|--------|
|-8------|
|---7----| X 2
|-----9b-|
|--------|
|--------|

Gr. 2 (Distorted)
|---------------------------------------------
|---------------------------------------------
|---------------------------------------------
|-5-5-5-5-5-5-5-5-5-5-5-2-2-2-2-2-2-2-2-2-2-2-
|-5-5-5-5-5-5-5-5-5-5-5-2-2-2-2-2-2-2-2-2-2-2-
|-3-3-3-3-3-3-3-3-3-3-3-0-0-0-0-0-0-0-0-0-0-0-

 -------------------------------------------|
 -------------------------------------------|
 -5-5-5-5-5-5-5-5-5-5-7-7-7-7-7-7-7-7-7-7-7-|
 -5-5-5-5-5-5-5-5-5-5-7-7-7-7-7-7-7-7-7-7-7-|
 -3-3-3-3-3-3-3-3-3-3-5-5-5-5-5-5-5-5-5-5-5-|
 -------------------------------------------|

Verse:

Gr. 1 (Distorted)
|---------------------------------------------
|---------------------------------------------
|---------------------------------------------
|-5-5-5-5-5-5-5-5-5-5-5-2-2-2-2-2-2-2-2-2-2-2-
|-5-5-5-5-5-5-5-5-5-5-5-2-2-2-2-2-2-2-2-2-2-2-
|-3-3-3-3-3-3-3-3-3-3-3-0-0-0-0-0-0-0-0-0-0-0-

 -------------------------------------------|
 -------------------------------------------|
 -5-5-5-5-5-5-5-5-5-5-7-7-7-7-7-7-7-7-7-7-7-|
 -5-5-5-5-5-5-5-5-5-5-7-7-7-7-7-7-7-7-7-7-7-|
 -3-3-3-3-3-3-3-3-3-3-5-5-5-5-5-5-5-5-5-5-5-|
 -------------------------------------------|
[ Tab from: http://www.guitartabs.cc/tabs/g/green_day/walking_alone_tab_ver_2.html ]
Gr. 2 (Clean)
 
  G                       E
|-3-3-3-3-3-3-3-3-3-3-3-3-0-0-0-0-0-0-0-0-0-0-0-0-0-
|-3-3-3-3-3-3-3-3-3-3-3-3-0-0-0-0-0-0-0-0-0-0-0-0-0-
|-4-4-4-4-4-4-4-4-4-4-4-4-1-1-1-1-1-1-1-1-1-1-1-1-1-
|-5-5-5-5-5-5-5-5-5-5-5-5-2-2-2-2-2-2-2-2-2-2-2-2-2-
|-5-5-5-5-5-5-5-5-5-5-5-5-2-2-2-2-2-2-2-2-2-2-2-2-2-
|-3-3-3-3-3-3-3-3-3-3-3-3-0-0-0-0-0-0-0-0-0-0-0-0-0-
  C                       D
 ---------------------------------------------------|
 -5-5-5-5-5-5-5-5-5-5-5-5-7-7-7-7-7-7-7-7-7-7-7-7-7-|
 -5-5-5-5-5-5-5-5-5-5-5-5-7-7-7-7-7-7-7-7-7-7-7-7-7-|
 -5-5-5-5-5-5-5-5-5-5-5-5-7-7-7-7-7-7-7-7-7-7-7-7-7-|
 -3-3-3-3-3-3-3-3-3-3-3-3-5-5-5-5-5-5-5-5-5-5-5-5-5-|
 ---------------------------------------------------|

Chorus

Gr. 1 (Distorted)

|---------------------------------------------------|
|---------------------------------------------------|
|-5-5-5-5-5-5-5-5-5-5-5-5-7-7-7-7-7-7-7-7-7-7-7-7-7-|
|-5-5-5-5-5-5-5-5-5-5-5-5-7-7-7-7-7-7-7-7-7-7-7-7-7-|
|-3-3-3-3-3-3-3-3-3-3-3-3-5-5-5-5-5-5-5-5-5-5-5-5-5-|
|---------------------------------------------------|


Gr. 2 (Clean)

|---------------------------------------------------|
|-5-5-5-5-5-5-5-5-5-5-5-5-7-7-7-7-7-7-7-7-7-7-7-7-7-|
|-5-5-5-5-5-5-5-5-5-5-5-5-7-7-7-7-7-7-7-7-7-7-7-7-7-|
|-5-5-5-5-5-5-5-5-5-5-5-5-7-7-7-7-7-7-7-7-7-7-7-7-7-|
|-3-3-3-3-3-3-3-3-3-3-3-3-5-5-5-5-5-5-5-5-5-5-5-5-5-|
|---------------------------------------------------|

Go Back To Intro, Verse and Chorus

Solo:

Gr. 1 (Distorted)

|------------------------------------|
|-8----------------------------------|
|---7--------------------------------| X 2
|-----9b------9-12-------11-14-11----|
|--------9-10------10-12----------12-|
|------------------------------------|

Gr. 2 (Distorted)
|---------------------------------------------
|---------------------------------------------
|---------------------------------------------
|-5-5-5-5-5-5-5-5-5-5-5-2-2-2-2-2-2-2-2-2-2-2-
|-5-5-5-5-5-5-5-5-5-5-5-2-2-2-2-2-2-2-2-2-2-2-
|-3-3-3-3-3-3-3-3-3-3-3-0-0-0-0-0-0-0-0-0-0-0-

 -------------------------------------------|
 -------------------------------------------|
 -5-5-5-5-5-5-5-5-5-5-7-7-7-7-7-7-7-7-7-7-7-|
 -5-5-5-5-5-5-5-5-5-5-7-7-7-7-7-7-7-7-7-7-7-|
 -3-3-3-3-3-3-3-3-3-3-5-5-5-5-5-5-5-5-5-5-5-|
 -------------------------------------------|

That's all, enjoy! 
:: Ultimate Guitar Archive :: 
http://www.ultimate-guitar.com 



Comments