Green Day - Walking Alone Chords & Tabs

 

Walking Alone Chords & Tabs

Green Day Chords & Tabs

Version: 2 Type: Chords 0 ratings
1 star 2 stars 3 stars 4 stars 5 stars
comments

Walking Alone Chords

   
Song       WALKING ALONE
Band       GREEN DAY
Album      NIMROD
TABBEER    EAIDDHI(eaiddhi@baganmail.net.mm)


INTRO
G               E
G               E                


VERSE 1
G                   E
Come together like a foot in a shoe
C                                 D
Only this time I think I stuck my foot in my mouth
G                     E
Thinking out loud and acting in vain
C                         D
Knocking over anyone that stands in my way


CHORUS
C                   D
Sometimes I need to apologize
C                   D
Sometimes I need to admit that I ain't right
C                       D
Sometimes I should just keep my mouth shut
   G    F    E
Or only say hello
C                 D                    G
Sometimes I still feel I'm walking alone


G               E
G               E


Guitar solo
E|-------------------------3---------5--|
B|-8---------------------5---5-----7----|
G|----7-4--9p11p9---4-5-------5--7------|
D|--------------------------------------|
A|--------------------------------------|
E|--------------------------------------|
[ Tab from: http://www.guitartabs.cc/tabs/g/green_day/walking_alone_crd_ver_2.html ]
E|------------------------3---------5---------3---------5----|
B|-8--------------------5---5-----7---7-----5---5-----7--7---|
G|----7-4--9P11P9---4-5------5--7------7--5------5--7-----7--|
D|-----------------------------------------------------------|
A|-----------------------------------------------------------|
E|-----------------------------------------------------------|


C                   D
Sometimes I need to apologize
C                   D
Sometimes I need to admit that I ain't right
C                       D
Sometimes I should just keep my mouth shut
   G    F    E
Or only say hello
C                 D                    G
Sometimes I still feel I'm walking alone

 
G               E
G               E


VERSE 2
G                    E
Walk on eggshells on my old stomping ground
C                                      D
Yet there's really no one left, that's hanging around
G                  E
Isn't that another familiar face
C                               D
Too drunk to figure out they're fading away

 
G                E
G                E


  FINE.

 IF YOU HAD ANY COMMENTS OR CORRECTION JUST MAIL ME....
Comments