Green Day - Wake Me Up When September Ends Chords & Tabs

 

Wake Me Up When September Ends Chords & Tabs

Green Day Chords & Tabs

Version: 7 Type: Tab 0 ratings
1 star 2 stars 3 stars 4 stars 5 stars
comments

Wake Me Up When September Ends Tab

   
 |-------------------------------------------------|
 | Green Day                                       |
 |-------------------------------------------------|
 | Wake Me Up When September Ends                  |
 |-------------------------------------------------|
 | American Idiot  (2004)                          |
 |-------------------------------------------------|
 | Tabbed By Donkey Fly       (2005)               |
 |-------------------------------------------------|
 | thedonkeyfly@hotmail.com                        |
 |-------------------------------------------------|


Intro
E|--------------||
B|-----3------3-||
G|---0------0---||
D|-5------5-----||
A|--------------||
E|--------------|| x4
Accoustic Guitar.

E|---------------|---------------|---------------|---------------||
B|------3-----3--|------3-----3--|------3-----3--|------3-----3--||
G|----0-----0----|----0-----0----|----0-----0----|----0-----0----||
D|--5-----5------|--4-----4------|--2-----2------|--0-----0------||
A|---------------|---------------|---------------|---------------||
E|---------------|---------------|---------------|---------------||
"Summer Has Come...."

E|-----------------|-----------------|-----------------|-----------------||
B|------5-----5----|------4-----4----|-----3------3----|------3-----3----||
G|------5-5---5-5--|------5-5---5-5--|-----0-0----0-0--|------0-0---0-0--||
D|----5------------|----5------------|--0--------------|---0-------------||
A|--3-------3------|--3-------3------|-----------------|-----------------||
E|-----------------|-----------------|--3-------3------|--3-------3------||
"Wake Me Up When...."
E|---------------|---------------|---------------|---------------||
B|------3-----3--|------3-----3--|------3-----3--|------3-----3--||
G|----0-----0----|----0-----0----|----0-----0----|----0-----0----||
D|--5-----5------|--4-----4------|--2-----2------|--0-----0------||
A|---------------|---------------|---------------|---------------||
E|---------------|---------------|---------------|---------------||
"Like My Father...."

E|---------------|---------------|---------------|----------------||
B|-----5-----5---|-----4-----4---|----3------3---|-----3------0---||
G|-----5-5---5-5-|-----5-5---5-5-|----0-0----0-0-|-----0-0----0-0-||
D|---5-----------|--5------------|--0------------|---0------0-----||
A|-3-------3-----|-3-------3-----|---------------|----------------||
E|---------------|---------------|-3-------3-----|-3-------2------||
"Wake Me Up When...."

E|----------------|-----------------|----------------|----------------||
B|-----0-----0----|-----3------3----|-----5-----5----|-----3-------3--||
G|-----0-0---0-0--|-----4-4----4-4--|-----5-5---5-5--|-----0-0-----0-0||
D|----------------|---4-------------|---5------------|---0------0-----||
A|---2------------|-2-------2-------|-3-------3------|----------------||
E|-0-------0------|-----------------|----------------|-3-------2------||
"Here Comes The Rain...."

E|----------------|-----------------|----------------|----------------||
B|-----0-----0----|-----3------3----|-----5-----5----|-----7-------7--||
G|---0---0-----0--|-----4-4----4-4--|-----5-5---5--5-|-----7-7-----7-7||
D|----------------|---4-------------|---5------------|---7------------||
A|---2------------|-2-------2-------|-3-------3------|-5------5-------||
E|-0-------0------|-----------------|----------------|----------------||
"Drenched In My...."

E|---------------|---------------|---------------|---------------||
B|------3-----3--|------3-----3--|------3-----3--|------3-----3--||
G|----0-----0----|----0-----0----|----0-----0----|----0-----0----||
D|--5-----5------|--4-----4------|--2-----2------|--0-----0------||
A|---------------|---------------|---------------|---------------||
E|---------------|---------------|---------------|---------------||
"Ring Out The....""

E|-----------------|-----------------|-----------------|-----------------||
B|------5-----5----|------4-----4----|-----3------3----|------3-----3----||
G|------5-5---5-5--|------5-5---5-5--|-----0-0----0-0--|------0-0---0-0--||
D|----5------------|----5------------|---0-------------|----0------------||
A|--3-------3------|--3-------3------|-----------------|-----------------||
E|-----------------|-----------------|--3-------3------|--3-------3------||
"Wake Me Up When...."

E|--------------||
B|------3-----3-||
G|----0-----0---||
D|--5-----5-----||
A|--------------||
E|--------------|| x2

E|--------------||
B|------3-----3-||
G|----0-----0---||
D|--5-----5-----||
A|--------------||
E|--------------|| x2
Slightly Distorted

E|---------------|---------------|---------------|---------------||
B|------3-----3--|------3-----3--|------3-----3--|------3-----3--||
G|----0-----0----|----0-----0----|----0-----0----|----0-----0----||
D|--5-----5------|--4-----4------|--2-----2------|--0-----0------||
A|---------------|---------------|---------------|---------------||
E|---------------|---------------|---------------|---------------||
(Still Slightly Distorted)"Summer Has Come...."
       C                  Cm                G                 G
E|-----------------|-----------------|-----------------|-----------------||
B|-5-5-5-5-5-5-5-5-|-4-4-4-4-4-4-4-4-|-----------------|-----------------||
G|-5-5-5-5-5-5-5-5-|-5-5-5-5-5-5-5-5-|-----------------|-----------------||
D|-5-5-5-5-5-5-5-5-|-5-5-5-5-5-5-5-5-|-5-5-5-5-5-5-5-5-|-5-5-5-5-5-5-5-5-||
A|-3-3-3-3-3-3-3-3-|-3-3-3-3-3-3-3-3-|-5-5-5-5-5-5-5-5-|-5-5-5-5-5-5-5-5-||
E|---------------- |-----------------|-3-3-3-3-3-3-3-3-|-3-3-3-3-3-3-3-3-||
(Full Distortion) "Wake Me Up When...."

E|---------------|---------------|---------------|---------------||
B|------3-----3--|------3-----3--|------3-----3--|------3-----3--||
G|----0-----0----|----0-----0----|----0-----0----|----0-----0----||
D|--5-----5------|--4-----4------|--2-----2------|--0-----0------||
A|---------------|---------------|---------------|---------------||
E|---------------|---------------|---------------|---------------||
(Still Slightly Distorted)"Like My Father...."
      C                     Cm              G               G      Fm/G
E|-----------------|-----------------|-----------------|-----------------||
B|-5-5-5-5-5-5-5-5-|-4-4-4-4-4-4-4-4-|-----------------|-----------------||
G|-5-5-5-5-5-5-5-5-|-5-5-5-5-5-5-5-5-|-----------------|-----------------||
D|-5-5-5-5-5-5-5-5-|-5-5-5-5-5-5-5-5-|-5-5-5-5-5-5-5-5-|-5-5-5-5-4-4-4-4-||
A|-3-3-3-3-3-3-3-3-|-3-3-3-3-3-3-3-3-|-5-5-5-5-5-5-5-5-|-5-5-5-5-5-5-5-5-||
E|---------------- |-----------------|-3-3-3-3-3-3-3-3-|-3-3-3-3-2-2-2-2-||
(Full Distortion) "Wake Me Up When...."
[ Tab from: http://www.guitartabs.cc/tabs/g/green_day/wake_me_up_when_september_ends_tab_ver_7.html ]
Chorus - Still Fully Distoted
       E                    B                C            G       Fm/G
E|-----------------|-----------------|-----------------|-----------------||
B|-----------------|-----------------|-----------------|-----------------||
G|-----------------|-4-4-4-4-4-4-4-4-|-5-5-5-5-5-5-5-5-|-----------------||
D|-2-2-2-2-2-2-2-2-|-4-4-4-4-4-4-4-4-|-5-5-5-5-5-5-5-5-|-5-5-5-5-4-4-4-4-||
A|-2-2-2-2-2-2-2-2-|-2-2-2-2-2-2-2-2-|-3-3-3-3-3-3-3-3-|-5-5-5-5-5-5-5-5-||
E|-0-0-0-0-0-0-0-0-|-----------------|-----------------|-3-3-3-3-2-2-2-2-||
"Here Comes The Rain...."
     E                     B               C               D
E|-----------------|-----------------|-----------------|-----------------||
B|-----------------|-----------------|-----------------|-----------------||
G|-----------------|-4-4-4-4-4-4-4-4-|-5-5-5-5-5-5-5-5-|-7-7-7-7-7-7-7-7-||
D|-2-2-2-2-2-2-2-2-|-4-4-4-4-4-4-4-4-|-5-5-5-5-5-5-5-5-|-7-7-7-7-7-7-7-7-||
A|-2-2-2-2-2-2-2-2-|-2-2-2-2-2-2-2-2-|-3-3-3-3-3-3-3-3-|-5-5-5-5-5-5-5-5-||
E|-0-0-0-0-0-0-0-0-|-----------------|-----------------|-----------------||
"drenched In My Pain....."

E|---------------|---------------|---------------|---------------||
B|------3-----3--|------3-----3--|------3-----3--|------3-----3--||
G|----0-----0----|----0-----0----|----0-----0----|----0-----0----||
D|--5-----5------|--4-----4------|--2-----2------|--0-----0------||
A|---------------|---------------|---------------|---------------||
E|---------------|---------------|---------------|---------------||
(Still Slightly Distorted)"Like My Father...."
           C              Cm                 G              G     Fm/G
E|-----------------|-----------------|-----------------|-----------------||
B|-5-5-5-5-5-5-5-5-|-4-4-4-4-4-4-4-4-|-----------------|-----------------||
G|-5-5-5-5-5-5-5-5-|-5-5-5-5-5-5-5-5-|-----------------|-----------------||
D|-5-5-5-5-5-5-5-5-|-5-5-5-5-5-5-5-5-|-5-5-5-5-5-5-5-5-|-5-5-5-5-4-4-4-4-||
A|-3-3-3-3-3-3-3-3-|-3-3-3-3-3-3-3-3-|-5-5-5-5-5-5-5-5-|-5-5-5-5-5-5-5-5-||
E|---------------- |-----------------|-3-3-3-3-3-3-3-3-|-3-3-3-3-2-2-2-2-||
(Full Distortion) "Wake Me Up When...."

Solo Time!......Yay.....
Gtr.1
E|-----7-----7---7-|-----7-----7---7-|-----8-----8---8-|10--10--10101010-||
B|-8-8---8-8---8---|-7-7---7-7---7---|-8-8---8-8---8---|-8-8-8-8-7-7-7-7-||
G|-----------------|-----------------|-----------------|-----------------||
D|-----------------|-----------------|-----------------|-----------------||
A|-----------------|-----------------|-----------------|-----------------||
E|-----------------|-----------------|-----------------|-----------------||
Gtr.2
     E                     B                   C           G        Fm
E|-----------------|-----------------|-----------------|-----------------||
B|-----------------|-----------------|-----------------|-----------------||
G|-----------------|-4-4-4-4-4-4-4-4-|-5-5-5-5-5-5-5-5-|-----------------||
D|-2-2-2-2-2-2-2-2-|-4-4-4-4-4-4-4-4-|-5-5-5-5-5-5-5-5-|-5-5-5-5-4-4-4-4-||
A|-2-2-2-2-2-2-2-2-|-2-2-2-2-2-2-2-2-|-3-3-3-3-3-3-3-3-|-5-5-5-5-4-4-4-4-||
E|-0-0-0-0-0-0-0-0-|-----------------|-----------------|-3-3-3-3-2-2-2-2-||
Gtr.1
E|-----7-----7---7-|-----7-----7---7-|-----8-----8---8-||
B|-8-8---8-8---8---|-7-7---7-7---7---|-8-8---8-8---8---||
G|-----------------|-----------------|-----------------||
D|-----------------|-----------------|-----------------||
A|-----------------|-----------------|-----------------||
E|-----------------|-----------------|-----------------||
Gtr.2
      E                   B                  G
E|-----------------|-----------------|-----------------||
B|-----------------|-----------------|-----------------||
G|-----------------|-4-4-4-4-4-4-4-4-|-5-5-5-5-5-5-5-5-||
D|-2-2-2-2-2-2-2-2-|-4-4-4-4-4-4-4-4-|-5-5-5-5-5-5-5-5-||
A|-2-2-2-2-2-2-2-2-|-2-2-2-2-2-2-2-2-|-3-3-3-3-3-3-3-3-||
E|-0-0-0-0-0-0-0-0-|-----------------|-----------------||
Gtr.2
        D                 D
E|-----------------|-----------------|
B|-----------------|-----------------|
G|-7-7-7-7-7-7-7-7-|-7-7-7-7-7-7-7-7-|
D|-7-7-7-7-7-7-7-7-|-7-7-7-7-7-7-7-7-|
A|-5-5-5-5-5-5-5-5-|-5-5-5-5-5-5-5-5-|
E|-----------------|-----------------|x2

E|1010101010101010-|1010101010101010-|
B|-8-8-8-8-8-8-8-8-|-7-7-7-7-7-7-7-7-|
G|-----------------|-----------------|
D|-----------------|-----------------|
A|-----------------|-----------------|
E|-----------------|-----------------| x2

E|--------------||
B|------3-----3-||
G|----0-----0---||
D|--5-----5-----||
A|--------------||
E|--------------|| x4
Accoustic Gtr.1

E|-10------|-10------|-10------|-10---15--||
B|------8--|------8--|------8--|----------||
G|---------|---------|---------|----------||
D|---------|---------|---------|----------||
A|---------|---------|---------|----------||
E|---------|---------|---------|----------|| x2
Clean - Gtr.2
E|---------------|---------------|---------------|---------------||
B|------3-----3--|------3-----3--|------3-----3--|------3-----3--||
G|----0-----0----|----0-----0----|----0-----0----|----0-----0----||
D|--5-----5------|--4-----4------|--2-----2------|--0-----0------||
A|---------------|---------------|---------------|---------------||
E|---------------|---------------|---------------|---------------||
(Accoustic)"Summer Has Come...."
          C              Cm                G                   G
E|-----------------|-----------------|-----------------|-----------------||
B|-5-5-5-5-5-5-5-5-|-4-4-4-4-4-4-4-4-|-----------------|-----------------||
G|-5-5-5-5-5-5-5-5-|-5-5-5-5-5-5-5-5-|-----------------|-----------------||
D|-5-5-5-5-5-5-5-5-|-5-5-5-5-5-5-5-5-|-5-5-5-5-5-5-5-5-|-5-5-5-5-5-5-5-5-||
A|-3-3-3-3-3-3-3-3-|-3-3-3-3-3-3-3-3-|-5-5-5-5-5-5-5-5-|-5-5-5-5-5-5-5-5-||
E|---------------- |-----------------|-3-3-3-3-3-3-3-3-|-3-3-3-3-3-3-3-3-||
(Full Distortion) "Wake Me Up When...."

E|---------------|---------------|---------------|---------------||
B|------3-----3--|------3-----3--|------3-----3--|------3-----3--||
G|----0-----0----|----0-----0----|----0-----0----|----0-----0----||
D|--5-----5------|--4-----4------|--2-----2------|--0-----0------||
A|---------------|---------------|---------------|---------------||
E|---------------|---------------|---------------|---------------||
(Still Slightly Distorted)"Like My Father...."
        C                 Cm               G                  G
E|-----------------|-----------------|-----------------|-----------------||
B|-5-5-5-5-5-5-5-5-|-4-4-4-4-4-4-4-4-|-----------------|-----------------||
G|-5-5-5-5-5-5-5-5-|-5-5-5-5-5-5-5-5-|-----------------|-----------------||
D|-5-5-5-5-5-5-5-5-|-5-5-5-5-5-5-5-5-|-5-5-5-5-5-5-5-5-|-5-5-5-5-5-5-5-5-||
A|-3-3-3-3-3-3-3-3-|-3-3-3-3-3-3-3-3-|-5-5-5-5-5-5-5-5-|-5-5-5-5-5-5-5-5-||
E|---------------- |-----------------|-3-3-3-3-3-3-3-3-|-3-3-3-3-3-3-3-3-|| x3
(Full Distortion) "Wake Me Up When...."
       C               Cm                   G            G
E|-----------------|-----------------|-----------------|-----------------||
B|-5-5-5-5-5-5-5-5-|-4-4-4-4-4-4-4-4-|-----------------|-----------------||
G|-5-5-5-5-5-5-5-5-|-5-5-5-5-5-5-5-5-|-----------------|-----------------||
D|-5-5-5-5-5-5-5-5-|-5-5-5-5-5-5-5-5-|-5-5-5-5-5-5-5-5-|-5~--------------||
A|-3-3-3-3-3-3-3-3-|-3-3-3-3-3-3-3-3-|-5-5-5-5-5-5-5-5-|-5~--------------||
E|---------------- |-----------------|-3-3-3-3-3-3-3-3-|-3~--------------||
(Full Distortion) "Wake Me Up When...."

Guitar 2
E|-10------|-10------|-10------|-10---15~-||
B|------8--|------8--|------8--|----------||
G|---------|---------|---------|----------||
D|---------|---------|---------|----------||
A|---------|---------|---------|----------||
E|---------|---------|---------|----------||


I've retabbed it and changed what was wrong.......If you still think it's wrong.....go 
it yourself instead of just leachign from these sites and people and giving nothing in return.

Thanks
Comments