Green Day - Wake Me Up When September Ends Chords & Tabs

 

Wake Me Up When September Ends Chords & Tabs

Green Day Chords & Tabs

Version: 2 Type: Tab 11 ratings
1 star 2 stars 3 stars 4 stars 5 stars
comments

Wake Me Up When September Ends Tab

   
Artist: Green Day
Song: Wake Me Up When September Ends
Album: American Idiot
Tabs By: Jonathon Knodle [noodleman5@msn.com]

Tuning: Standard [e B G D A e]

Intro:
E|------------------------------------------------------------|
B|-----3-----3--------3-----3--------3-----3--------3-----3---|
G|---0-----0--------0-----0--------0-----0--------0-----0-----|
D|-5-----5--------5-----5--------5-----5--------5-----5-------|
A|------------------------------------------------------------|
E|------------------------------------------------------------|

Verse:
E|------------------------------------------------------------|
B|-----3-----3--------3-----3--------3-----3--------3-----3---|
G|---0-----0--------0-----0--------0-----0--------0-----0-----|
D|-5-----5--------4-----4--------2-----2--------0-----0-------|
A|------------------------------------------------------------|
E|------------------------------------------------------------|

E|------------------------------------------------------------|
B|-----------------------------------3-----3--------3-----3---|
G|-----5-----5--------5-----5------0-----0--------0-----0-----|
D|---5-----5--------5-----5------5-----5--------5-----5-------|
A|-3-----3--------3-----3-------------------------------------|
E|------------------------------------------------------------|

E|------------------------------------------------------------|
B|-----3-----3--------3-----3--------3-----3--------3-----3---|
G|---0-----0--------0-----0--------0-----0--------0-----0-----|
D|-5-----5--------4-----4--------2-----2--------0-----0-------|
A|------------------------------------------------------------|
E|------------------------------------------------------------|

E|------------------------------------------------------|
B|-----------------------------------3-----3--------3---|
G|-----5-----5--------5-----5------0-----0--------0-----|
D|---5-----5--------5-----5------5-----5--------5-------|
A|-3-----3--------3-----3-------------------------------|
E|------------------------------------------------------|

Chorus:
E|---------------------------------------------------------------|
B|---------------------------------------------------------------|
G|--------------------------------------4-----4--------5-----5---|
D|-----4--------3--------2-----2------4-----4--------5-----5-----|
A|---4--------3--------2-----2------2-----2--------3-----3-------|
E|-2--------1--------0-----0-------------------------------------|

E|---------------------------------------------------------------|
B|---------------------------------------------------------------|
G|--------------------------------------4-----4--------5-----5---|
D|-----5--------4--------2-----2------4-----4--------5-----5-----|
A|---5--------4--------2-----2------2-----2--------3-----3-------|
E|-3--------2--------0-----0-------------------------------------|

E|---------------------------------------------------------------------------|
B|--------------------3-----3--------3-----3--------3-----3--------3-----3---|
G|-----7-----7------0-----0--------0-----0--------0-----0--------0-----0-----|
D|---7-----7------5-----5--------4-----4--------2-----2--------0-----0-------|
A|-5-----5-------------------------------------------------------------------|
E|---------------------------------------------------------------------------|

E|------------------------------|
B|------------------------------|
G|-----5-----5--------5-----5---|
D|---5-----5--------5-----5-----|
A|-3-----3--------3-----3-------|
E|------------------------------|

Verse:
E|------------------------------------------------------------|
B|-----3-----3--------3-----3--------3-----3--------3-----3---|
G|---0-----0--------0-----0--------0-----0--------0-----0-----|
D|-5-----5--------5-----5--------5-----5--------5-----5-------|
A|------------------------------------------------------------|
E|------------------------------------------------------------|

E|------------------------------------------------------------|
B|-----3-----3--------3-----3--------3-----3--------3-----3---|
G|---0-----0--------0-----0--------0-----0--------0-----0-----|
D|-5-----5--------4-----4--------2-----2--------0-----0-------|
A|------------------------------------------------------------|
E|------------------------------------------------------------|

E|-x----x---|
B|-x----x---|
G|-5----x---|
D|-5----5---|
A|-3----5---|
E|-x----3---|
[ Tab from: http://www.guitartabs.cc/tabs/g/green_day/wake_me_up_when_september_ends_tab_ver_2.html ]
E|------------------------------------------------------------|
B|-----3-----3--------3-----3--------3-----3--------3-----3---|
G|---0-----0--------0-----0--------0-----0--------0-----0-----|
D|-5-----5--------4-----4--------2-----2--------0-----0-------|
A|------------------------------------------------------------|
E|------------------------------------------------------------|

E|-x----x----x----x----x----x----x----x----x----x----x----x---|
B|-x----x----x----x----x----x----x----x----x----x----x----x---|
G|-5----x----x----x----4----5----x----x----x----4----5----7---|
D|-5----5----4----2----4----5----5----4----2----4----5----7---|
A|-3----5----4----2----2----3----5----4----2----2----3----5---|
E|-x----3----2----0----x----x----3----2----0----x----x----x---|

E|------------------------------------------------------------|
B|-----3-----3--------3-----3--------3-----3--------3-----3---|
G|---0-----0--------0-----0--------0-----0--------0-----0-----|
D|-5-----5--------4-----4--------2-----2--------0-----0-------|
A|------------------------------------------------------------|
E|------------------------------------------------------------|

Guitar Solo:
[Guitar 1]
E|-x----x----x----x----x----x----x----x----x----x----x----x---|
B|-x----x----x----x----x----x----x----x----x----x----x----x---|
G|-5----x----x----x----4----5----x----x----x----4----5----7---|
D|-5----5----4----2----4----5----5----4----2----4----5----7---|
A|-3----5----4----2----2----3----5----4----2----2----3----5---|
E|-x----3----2----0----x----x----3----2----0----x----x----x---|

[Guitar 2]
E|----------------------------------------------------------------------------------|
B|-------12--------12-----12--------12--------12-----12--------13--------13-----13--|
G|-12-12-----12-12-----12-----11-11-----11-11-----11-----12-12-----12-12-----12-----|
D|----------------------------------------------------------------------------------|
A|----------------------------------------------------------------------------------|
E|----------------------------------------------------------------------------------|

E|----------------------------|
B|-15-15-15-15--15-15-15-15---|
G|-12-12-12-12--11-11-11-11---|
D|----------------------------|
A|----------------------------|
E|----------------------------|

E|----------------------------------------------------------------------------------|
B|-------12--------12-----12--------12--------12-----12--------13--------13-----13--|
G|-12-12-----12-12-----12-----11-11-----11-11-----11-----12-12-----12-12-----12-----|
D|----------------------------------------------------------------------------------|
A|----------------------------------------------------------------------------------|
E|----------------------------------------------------------------------------------|

E|----------------------------------------------------|
B|-15-15-15-15-15-15-15-15--15-15-15-15-15-15-15-15---|
G|-12-12-12-12-12-12-12-12--11-11-11-11-11-11-11-11---|
D|----------------------------------------------------|
A|----------------------------------------------------|
E|----------------------------------------------------|

E|--------------------------------------------------------|
B|-15-15-15-15-15-15-15-15--15-15-15-15-15-15-15-15--15---|
G|-12-12-12-12-12-12-12-12--11-11-11-11-11-11-11-11--12---|
D|--------------------------------------------------------|
A|--------------------------------------------------------|
E|--------------------------------------------------------|

Verse:
E|------------------------------------------------------------|
B|-----3-----3--------3-----3--------3-----3--------3-----3---|
G|---0-----0--------0-----0--------0-----0--------0-----0-----|
D|-5-----5--------5-----5--------5-----5--------5-----5-------|
A|------------------------------------------------------------|
E|------------------------------------------------------------|

E|------------------------------------------------------------|
B|-----3-----3--------3-----3--------3-----3--------3-----3---|
G|---0-----0--------0-----0--------0-----0--------0-----0-----|
D|-5-----5--------4-----4--------2-----2--------0-----0-------|
A|------------------------------------------------------------|
E|------------------------------------------------------------|

E|-x----x---|
B|-x----x---|
G|-5----x---|
D|-5----5---|
A|-3----5---|
E|-x----3---|

E|------------------------------------------------------------|
B|-----3-----3--------3-----3--------3-----3--------3-----3---|
G|---0-----0--------0-----0--------0-----0--------0-----0-----|
D|-5-----5--------4-----4--------2-----2--------0-----0-------|
A|------------------------------------------------------------|
E|------------------------------------------------------------|

E|-x----x---|
B|-x----x---|
G|-5----x---| (x3)
D|-5----5---|
A|-3----5---|
E|-x----3---|
          (Let Ring)
Comments