Green Day - Wake Me Up When September Ends Chords & Tabs

 

Wake Me Up When September Ends Chords & Tabs

Green Day Chords & Tabs

Version: 4 Type: Bass Tab 0 ratings
1 star 2 stars 3 stars 4 stars 5 stars
comments

Wake Me Up When September Ends Bass Tab

   
                     ------------------------------------------------------------------
				<< GREEN DAY >> - WAKE ME UP WHEN SEPTEMBER ENDS (AMERICAN IDIOT) 
                     ------------------------------------------------------------------

[ Tabber: LUIZ MANZANO (BRASIL) ]
[ e-mail: lukdeluca@yahoo.com.br ]

Intro (guitar and vocal)
(>> continuation)

"Wake me up when september ends..."
G|---------------------------------------|
D|---------------------------------------|
A|3333333333333333----------------2/10---|
E|----------------3333333333333333-------| >>

>> "Ring out the bells again..."
G|-------------------------------9-------7---|
D|-----12------------12-------9-------7------|
A|10-10--10-10-10--99--999--77-77---55-55----|
E|-------------------------------------------| >>

>> "Wake me up when september ends..."
G|----------------------------------------|
D|----------------------------------------|
A|3333333333333333------------------------|
E|----------------3333333333333333-2222---| >>

>> "Here comes the rain again..."
G|-------------------------------------------------------7--7-------|
D|------------------------------------------------------------------|
A|-------2222222-333333-----------------2222222-333333-55-55-5/10---|
E|0000000--------------3-33-2-22-0000000----------------------------| >>
[ Tab from: http://www.guitartabs.cc/tabs/g/green_day/wake_me_up_when_september_ends_btab_ver_4.html ]
>> "As my memory rests..." 
G|-------------------------------9-------7---|
D|-----12------------12-------9-------7------|
A|10-10--10-10-10--99--999--77-77---55-55----|
E|-------------------------------------------| >>

>> "Wake me up when september ends..."
G| ----------------------------------------|
D|----------------------------------------|
A|3333333333333333------------------------|
E|----------------3333333333333333-2222---| >>

>> Solo...
G|------------------------------------------------------7777777777777777777777777777777---|
D|----------------------5-55-4-44---------------------------------------------------------|
A|-------2222222-333333-----------------2222222-333333--5555555555555555555555555555555---|
E|0000000------------------------0000000--------------------------------------------------| >>

(only guitar and vocal)

>> "Wake me up when september ends..."
G|---------------------------------------|
D|---------------------------------------|
A|3333333333333333----------------2/10---|
E|----------------3333333333333333-------| >>

>> "like my fathers come to pass..."
G|-------------------------------9-------7---|
D|-----12------------12-------9-------7------|
A|10-10--10-10-10--99--999--77-77---55-55----|
E|-------------------------------------------| >>

>> "Wake me up when september ends..." (repeat 3x)
G|--------------------------------------|
D|--------------------------------------|
A|3333333333333333------------------0---|
E|----------------333333333333333-35----|



| /  slide up
| \  slide down
| h  hammer-on
| p  pull-off
| ~  vibrato
| +  harmonic
| x  Mute note
===============================================================================
Comments