Green Day - Wake Me Up When September Ends Chords & Tabs

 

Wake Me Up When September Ends Chords & Tabs

Green Day Chords & Tabs

Version: 2 Type: Bass Tab 4 ratings
1 star 2 stars 3 stars 4 stars 5 stars
comments

Wake Me Up When September Ends Bass Tab

Intro

G|------------|------------|------------|------------|
D|-5-5-5-5-5-5|-5-5-5-5-5-5|-5-5-5-5-5-5|-5-5-5-5-5-5|
A|------------|------------|------------|------------|
E|------------|------------|------------|------------|

Verse
G|------------|------------|--------------|------------|
D|-5-5-5-5-5-5|-4-4-4-4-4-4|-2-2-2-2-2-2-2|-0-0-0-0-0-0|
A|------------|------------|--------------|------------|
E|------------|------------|--------------|------------|

Chorus

G|---------------|---------------|---------------|---------------|
D|---------------|---------------|---------------|---------------|
A|3-3-3-3-3-3-3-3|3-3-3-3-3-3-3-3|---------------|---------------|
E|---------------|---------------|3-3-3-3-3-3-3-3|3-3-3-3-3-3-3-3|

Verse


G|------------|------------|--------------|------------|
D|-5-5-5-5-5-5|-4-4-4-4-4-4|-2-2-2-2-2-2-2|-0-0-0-0-0-0|
A|------------|------------|--------------|------------|
E|------------|------------|--------------|------------|


Chorus

G|---------------|---------------|---------------|---------------|
D|---------------|---------------|---------------|---------------|
A|3-3-3-3-3-3-3-3|3-3-3-3-3-3-3-3|---------------|---------------|
E|---------------|---------------|3-3-3-3-3-3-3-3|3-3-3-3-2-2-2-2|

Bridge

G|---------------|---------------|---------------|---------------|
D|---------------|---------------|---------------|---------------|
A|---------------|2-2-2-2-2-2-2-2|3-3-3-3-3-3-3-3|---------------|
E|0-0-0-0-0-0-0-0|---------------|---------------|3-3-3-3-2-2-2-2|

G|---------------|---------------|---------------|---------------|
D|---------------|---------------|---------------|---------------|
A|---------------|2-2-2-2-2-2-2-2|3-3-3-3-3-3-3-3|5-5-5-5-5-5-5-5|
E|0-0-0-0-0-0-0-0|---------------|---------------|---------------|

Verse


G|------------|------------|--------------|------------|
D|-5-5-5-5-5-5|-4-4-4-4-4-4|-2-2-2-2-2-2-2|-0-0-0-0-0-0|
A|------------|------------|--------------|------------|
E|------------|------------|--------------|------------|


Chorus


G|---------------|---------------|---------------|---------------|
D|---------------|---------------|---------------|---------------|
A|3-3-3-3-3-3-3-3|3-3-3-3-3-3-3-3|---------------|---------------|
E|---------------|---------------|3-3-3-3-3-3-3-3|3-3-3-3-3-3-3-3|



Break (this is when the bass comes in, in the record)

                                                      \/ distortion here
G|------------|------------|------------|------------|-----------|-------------|
D|-5-5-5-5-5-5|-5-5-5-5-5-5|-5-5-5-5-5-5|-5-5-5-5-5-5|5-5-5-5-5-5|5-5-5-5-5-5-5|
A|------------|------------|------------|------------|-----------|-------------|
E|------------|------------|------------|------------|-----------|-------------|


Verse:

G|------------|------------|--------------|------------|
D|-5-5-5-5-5-5|-4-4-4-4-4-4|-2-2-2-2-2-2-2|-0-0-0-0-0-0|
A|------------|------------|--------------|------------|
E|------------|------------|--------------|------------|


Chorus:

G|---------------|---------------|---------------|---------------|
D|---------------|---------------|---------------|---------------|
A|3-3-3-3-3-3-3-3|3-3-3-3-3-3-3-3|---------------|---------------|
E|---------------|---------------|3-3-3-3-3-3-3-3|3-3-3-3-3-3-3-3|

Verse:

G|------------|------------|--------------|------------|
D|-5-5-5-5-5-5|-4-4-4-4-4-4|-2-2-2-2-2-2-2|-0-0-0-0-0-0|
A|------------|------------|--------------|------------|
E|------------|------------|--------------|------------|



Chorus:
[ Tab from: http://www.guitartabs.cc/tabs/g/green_day/wake_me_up_when_september_ends_btab_ver_2.html ]
G|---------------|---------------|---------------|---------------|
D|---------------|---------------|---------------|---------------|
A|3-3-3-3-3-3-3-3|3-3-3-3-3-3-3-3|---------------|---------------|
E|---------------|---------------|3-3-3-3-3-3-3-3|3-3-3-3-3-3-3-3|

Bridge:

G|---------------|---------------|---------------|---------------|
D|---------------|---------------|---------------|---------------|
A|---------------|2-2-2-2-2-2-2-2|3-3-3-3-3-3-3-3|---------------|
E|0-0-0-0-0-0-0-0|---------------|---------------|3-3-3-3-2-2-2-2|

G|---------------|---------------|---------------|---------------|
D|---------------|---------------|---------------|---------------|
A|---------------|2-2-2-2-2-2-2-2|3-3-3-3-3-3-3-3|5-5-5-5-5-5-5-5|
E|0-0-0-0-0-0-0-0|---------------|---------------|---------------|





Verse:

G|------------|------------|--------------|------------|
D|-5-5-5-5-5-5|-4-4-4-4-4-4|-2-2-2-2-2-2-2|-0-0-0-0-0-0|
A|------------|------------|--------------|------------|
E|------------|------------|--------------|------------|



Chorus:

G|---------------|---------------|---------------|---------------|
D|---------------|---------------|---------------|---------------|
A|3-3-3-3-3-3-3-3|3-3-3-3-3-3-3-3|---------------|---------------|
E|---------------|---------------|3-3-3-3-3-3-3-3|3-3-3-3-2-2-2-2|

During Guitar solo play bridge:


G|---------------|---------------|---------------|---------------|
D|---------------|---------------|---------------|---------------|
A|---------------|2-2-2-2-2-2-2-2|3-3-3-3-3-3-3-3|---------------|
E|0-0-0-0-0-0-0-0|---------------|---------------|3-3-3-3-2-2-2-2|

G|---------------|---------------|---------------|---------------|
D|---------------|---------------|---------------|---------------|
A|---------------|2-2-2-2-2-2-2-2|3-3-3-3-3-3-3-3|5-5-5-5-5-5-5-5|
E|0-0-0-0-0-0-0-0|---------------|---------------|---------------|

G|---------------|---------------|---------------|--|
D|5-5-5-5-5-5-5-5|5-5-5-5-5-5-5-5|5-5-5-5-5-5-5-5|-5|
A|---------------|---------------|---------------|--|
E|---------------|---------------|---------------|--|


Second Break

G|------------|------------|------------|------------|
D|-5-5-5-5-5-5|-5-5-5-5-5-5|-5-5-5-5-5-5|-5-5-5-5-5-5|
A|------------|------------|------------|------------|
E|------------|------------|------------|------------|

Verse

G|------------|------------|--------------|------------|
D|-5-5-5-5-5-5|-4-4-4-4-4-4|-2-2-2-2-2-2-2|-0-0-0-0-0-0|
A|------------|------------|--------------|------------|
E|------------|------------|--------------|------------|



Chorus

G|---------------|---------------|---------------|---------------|
D|---------------|---------------|---------------|---------------|
A|3-3-3-3-3-3-3-3|3-3-3-3-3-3-3-3|---------------|---------------|
E|---------------|---------------|3-3-3-3-3-3-3-3|3-3-3-3-3-3-3-3|
Verse

G|------------|------------|--------------|------------|
D|-5-5-5-5-5-5|-4-4-4-4-4-4|-2-2-2-2-2-2-2|-0-0-0-0-0-0|
A|------------|------------|--------------|------------|
E|------------|------------|--------------|------------|





Ending

G|---------------|---------------|---------------|---------------|
D|---------------|---------------|---------------|---------------|
A|3-3-3-3-3-3-3-3|3-3-3-3-3-3-3-3|---------------|---------------|
E|---------------|---------------|3-3-3-3-3-3-3-3|3-3-3-3-3-3-3-3|

G|---------------|---------------|---------------|---------------|
D|---------------|---------------|---------------|---------------|
A|3-3-3-3-3-3-3-3|3-3-3-3-3-3-3-3|---------------|---------------|
E|---------------|---------------|3-3-3-3-3-3-3-3|3-3-3-3-3-3-3-3|

G|---------------|---------------|---------------|---------------|
D|---------------|---------------|---------------|---------------|
A|3-3-3-3-3-3-3-3|3-3-3-3-3-3-3-3|---------------|---------------|
E|---------------|---------------|3-3-3-3-3-3-3-3|3-3-3-3-3-3-3-3|



E-mail me at : Masarinen@hotmail.com
Comments