Green Day - Waiting Chords & Tabs

 

Waiting Chords & Tabs

Green Day Chords & Tabs

Version: 7 Type: Tab 0 ratings
1 star 2 stars 3 stars 4 stars 5 stars
comments

Waiting Tab

   
Artist  : Green Day 
Title   : Waiting
Album   : Warning
Released: 2000

Lyrics by: Billie Joe Armstrong

Tuning: 1/2 step down

Tabbed by: Sigbjørn Ottar Nydal (Sigbjorn01@gmx.net)

_______________________________________________________________________

Chords:

    A5  B5  Bsus D5  Dsus2 E5  E5* F+  F#5
eb|---------0------------------------------
Bb|---------0--------5---------------------
Gb|---------4----7---7---------9-----------
Db|-7---9---4----7---7-----2---9---3----4--
Ab|-7---9---2----5---5-----2---7---4----4--
Eb|-5---7------------------0-------1----2--

____________________________________________________________

Song progression:
Verse 1 > Chorus 1 > Bridge 1 > 
Verse 2 > Chorus 1 > Bridge 2 > 
Solo > Chorus 3 > Bridge 2 > 
Verse 4 > Outro verse
____________________________________________________________


Verse 1:

A5        D5                     B5       D5
I've been waiting a long time    for this moment to come I'm 
destined  for anything at        all____________

(electric->)
Downtown  lights will be shining on me    like a diamond
ring out  under the midnight     hour___________ 
no one    can touch me now and   i can't  turn my back it's 
too late  ready or not at        all____________               Well

Chorus 1:

F#5         F+          E5          B5
I'm so much closer than i have ever known       wake up 

Bridge1:

 D5    A5    D5 
---------------------------------
---------------------------------
-7-7-7-------7-7-7---------------
-7-7-7-7-7-7-7-7-7-[ Drum fill ]-
-5-5-5-7-7-7-5-5-5---------------
-------5-5-5---------------------

Verse 2:

A5        D5                 B5       D5
dawning   of a new era       calling  don't let it catch you
falling   ready or not at    all______________      
so close  enough to taste it almost   i can embrace this 
feeling   on the tip of my   tongue___________ 

Bridge 2:

D5  A5  D5  A5  D5 A5  D5    A5 
-
                better thank your 
luc-ky  stars 

D5  A5  D5  E5*

Shoo -h -he

Solo:
[ Tab from: http://www.guitartabs.cc/tabs/g/green_day/waiting_tab_ver_7.html ]
(A5         D5           B5      D5      )

------------------------------------------
------------------------------------------
-9----6----4-6-7-6-4---/9----6--4-6-7-6-4-
------------------------------------------
------------------------------------------
------------------------------------------

(A5        D5          B5              D5        )

---------------------------------------------5---------
-------------------------4-----7p4---------------------
-6---2~----4-6-7-6-4---4-----4-----4---2---2-------2---
-------------------------------------------------------
-------------------------------------------------------
-------------------------------------------------------

Chorus 3:

F#5                     F+                 
I'm so much             closer than             

Gtr.2 :

-------9----12-9------------9----12-9------
----10---10------10~-----10---10------10~--
-11-------------------10-------------------
-------------------------------------------
-------------------------------------------
-------------------------------------------

E5                    B5 \
I have ever          known                        wake up

Gtr. 2:

------9----12-9------------------------------------------
---10---10------10~--------------------------------------
-9-------------------8~----\4----------------------------
---------------------------------------------------------
---------------------------------------------------------
---------------------------------------------------------
---------------------------------------------------------
Bridge 2

Verse 4:

A5         Dsus2               Bsus      Dsus2
(Acoustic->)
-   - -    
I've been  waiting a long time for this  moment to come I'm 
destined   for anything at     all__________________

(Electric->)
A5         D5                  B5        D5
Dumbstruck colour me stupid    good luck you're gonna need it 
where i'm  going if i get      there  at all             wake 
up_________________________________________ better thank your 

A5         D5                  B5        D5 |
lucky stars                                                   
Comments