Green Day - Waiting Chords & Tabs

 

Waiting Chords & Tabs

Green Day Chords & Tabs

Version: 5 Type: Tab 0 ratings
1 star 2 stars 3 stars 4 stars 5 stars
comments

Waiting Tab

greenday,waiting.
 Tabbed by daniel brown,dannybrown@cableinet.co.uk.
  
THIS SONG IS BASICLY 4 PARTS


                                 
(part1)     
--------------------------------------------------------------------| 
--------------------------------------------------------------------| 
--------------------------------------------------------------------| 
-6-6-6-6-6-6-/11-11-11-11-11-11-\\8-8-8-8-8-8-/-11-11-11-11-11-11----| 
-6-6-6-6-6-6-/11-11-11-11-11-11-\\8-8-8-8-8-8-/-11-11-11-11-11-11----| 
-4-4-4-4-4-4-/-9--9--9--9--9--9-\\6-6-6-6-6-6-/--9--9--9--9--9--9----


      

part 2
----------------- 
----------------- 
-4-4-4----------- 
-4-4-4-4-4-4----- 
-6-6-6-4-4-4----- 
-------6-6-6----- 
wake up!



(part 3)
|-----------------------------------------| 
|-----------------------------------------| 
|-4-4-4-------4-4-4-------4-4-------------| 
|-4-4-4-4-4-4-4-4-4-4-4-4-4-4-4-4---------| 
|-6-6-6-4-4-4-6-6-6-4-4-4-6-6-4-4---------| 
|-------6-6-6-------6-6-6-----6-6---------|x2 
Wake up(1) 
Better thank your luc ky stars(2) 

(part 4)
SOLO: 
 
[ Tab from: http://www.guitartabs.cc/tabs/g/green_day/waiting_tab_ver_5.html ]
E|----------------------------------------------------------------|
B|----------------------------------------------------------------|
G|9--6----4-6-7-6-4----9--6----4-6-7-6-4----6--2----4-6-7-6-4-4~--|
D|----------------------------------------------------------------|
A|----------------------------------------------------------------|
E-----------------------------------------------------------------

OR JUST PLAY THE VERSE(its what they do live)


 ORDER:-

PART 1  (JUST GUITAR)
PART 1 (WITH BAND)
PART 2
PART 1
PART 3
PART 4
PART 1
PART 3
PART 1 (JUST GUITAR)
PART 1 (WITH  BAND)
END WITH

--------------------------------------------------------------------| 
--------------------------------------------------------------------| 
--------------------------------------------------------------------| 
-6-6-6-6-6-6-/------------------------------------------------------| 
-6-6-6-6-6-6-/------------------------------------------------------| 
-4-4-4-4-4-4-/------------------------------------------------------
 
:: Ultimate Guitar Archive :: 
http://www.ultimate-guitar.com 



Comments