Green Day - Waiting Chords & Tabs

 

Waiting Chords & Tabs

Green Day Chords & Tabs

Version: 4 Type: Tab 0 ratings
1 star 2 stars 3 stars 4 stars 5 stars
comments

Waiting Tab

   
Name: Ben

Tabs: Song: Waiting
Artist: Green Day
Tabbed by: billiejhendrix@hotmail.com

Chords:

    G#5   C#5   A#5   F5   G5
E: -----------------------------------------|
B: -----------------------------------------|
G: --------6-------------------------------|
D: -6-----6-----8-----3----5-------------|
A: -6-----4-----8-----3----5-------------|
E: -4------------6-----1----3-------------|


G#5            C#5                          A#5         C#5
I've been waiting a long time for this moment to come
        G#5       C#5                   A#5       C#5
I'm destined for anything at all
G#5               C#5                           A#5           C#5
Downtown lights will be shining on me like a new diamond
G#5         C#5                        A#5      C#5
Ring out under the midnight hour
G#5           C#5                    A#5      C#5               
No one can touch me now and I can't turn my back
      G#5        C#5                A#5    C#5
It's too late ready or not at all

F5                                                        G#5
I'm so much closer than I have ever known…
C#5      G#5     C#5   
Wake up!

G#5            C#5             A#5           C#5
Dawning of a new era calling… don't let it catch you 
G#5            C#5           A#5      C#5
Falling ready or not at all
G#5           C#5                       A#5     C#5
So close enough to taste it almost… I can embrace this
G#5            C#5                     A#5      C#5
Feeling… on the tip of my tongue
[ Tab from: http://www.guitartabs.cc/tabs/g/green_day/waiting_tab_ver_4.html ]
F5                                                          G#5
I'm so much closer than I have ever known
      C#5   G#5  C#5… (Repeat chords 7x) 
Wake up!        Better thank your lucky stars…
(  ( Solo! )  )

E: -------------------------------------------------------------------------------------|
B: ---4---1-----------------------------4---1--------------------------------1-------|
G: -------------3(h)5----6---5---3--------------3(h)5----6---5---3-----------1---|
D: -------------------------------------------------------------------------------------|
A: -------------------------------------------------------------------------------------|
E: -------------------------------------------------------------------------------------|

E: --------------------------------------------------------------------------------------|
B: ---------------------------------------3--3---------------------------------------|
G:---3(h)5----6---5---3-----3-3-3-- ------------------3-----1---1---1---1---1----|
D: --------------------------------------------------------------------------------------|
A: --------------------------------------------------------------------------------------|
E: -------------------------------------------------------------------------------------|

F5                                                        G#5
I'm so much closer than I have ever known
     C#5    G#5  C#5…  (Repeat chords 7x)   
Wake up!   Better thank your lucky stars…

G#5             C#5                    A#5                    C#5                         
I've been waiting a lifetime for this moment to come
          G#5                C#5        A#5   C#5
I'm destined for anything at all

(Pause)

G#5                   C#5                 A#5             C#5                  
Dumbstruck color me stupid good luck you're gonna need it 
G#5              C#5               A#5     C#5                
Where I'm going if I get there at all…

    G#5    C#5    A#5    C#5    G#5    C#5    A#5    C#5
Wake up!     Better thank your lucky stars…


That's the song.  If you have any changes to make email me about it at:
billiejhendrix@hotmail.com 
Comments