Green Day - Waiting Chords & Tabs

 

Waiting Chords & Tabs

Green Day Chords & Tabs

Version: 13 Type: Tab 0 ratings
1 star 2 stars 3 stars 4 stars 5 stars
comments

Waiting Tab

great green day song, it took me ages to
tab this solo so please rate it.
P.S this tab better go through cos
i've done about 20 and only 5 got in!!!

e|--------------------|
B|--------------------|
G|--9/6~--4h6-7-6-4~--|
D|--------------------|x2
A|--------------------|
E|--------------------|

e|--------------------|
B|--------------------|
G|-6/2~--4h6-7-6-4----|
D|--------------------|
A|--------------------|
E|--------------------|
[ Tab from: http://www.guitartabs.cc/tabs/g/green_day/waiting_tab_ver_13.html ]
e|--------------------5---|
B|---4---7---4------------|
G|-4---4---4---4--2-2---2-|
D|------------------------|
A|------------------------|
E|------------------------|

chorus solo
e|-------9----12-9-----|-------9----12-9-----|
B|----10---10------10~-|----10---10------10~-|
G|-11------------------|-10------------------|
D|---------------------|---------------------|
A|---------------------|---------------------|
E|---------------------|---------------------|

e|------9----12-9------|---------------------|
B|---10---10------10~--|---------------------|
G|-9-------------------|-8~/4~---------------|
D|---------------------|---------------------|
A|---------------------|---------------------|
E|---------------------|---------------------|

thats it hope its al right!!!
Comments