Green Day - Waiting Chords & Tabs

 

Waiting Chords & Tabs

Green Day Chords & Tabs

Version: 11 Type: Tab 0 ratings
1 star 2 stars 3 stars 4 stars 5 stars
comments

Waiting Tab

   
Intro (clean or light distortion)
E----------------------------------
B----------666666----------666666--
G--555555--666666--777777--666666--
D--666666--666666--888888--666666--X2
A--666666--444444--888888--444444--
E--444444----------666666----------

Verse 1 (heavier distortion until further notice)
E-------------------------------
B-------------------------------
G---------666666--------666666--
D--666666-666666-888888-666666--X4
A--666666-444444-888888-444444--
E--444444--------666666---------

Chorus 1
E----------------------------------------------
B----------------------------------------------
G--------------------------------666-----666---
D--333333-222222-888888-66666666-666-666-666---
A--333333-222222-888888-66666666-444-666-444---
E--111111-000000-666666-44444444-----444-------

Verse 2
E-------------------------------
B-------------------------------
G---------666666--------666666--
D--666666-666666-888888-666666--X4
A--666666-444444-888888-444444--
E--444444--------666666---------

Chorus 2
E--------------------------------
B--------------------------------
G--------------------------------
D-333333-222222-888888-66666666--
A-333333-222222-888888-66666666--
E-111111-000000-666666-44444444--

Interlude
E--------------------------
B--------------------------
G--666-----666-----6---6---
D--666-666-666-666-6-6-6-6-X3
A--444-666-444-666-4-6-4-6-
E------444-----444---4---4-
[ Tab from: http://www.guitartabs.cc/tabs/g/green_day/waiting_tab_ver_11.html ]
E------------------------
B------------------------
G--666----------66666666--
D--666-666-6666-66666666--
A--444-666-6666-44444444--
E------444-4444--------------

Solo
E--------------------------------------------------------
B-2-----------2-------------------------3-6-3------------
G--5-3-5-6-5-3-5-3-5-6-5-3-5-1-3-5-6-5-3-3-3-3-3-1-1-1-1-
D--------------------------------------------------------
A--------------------------------------------------------
E--------------------------------------------------------

Chorus 3
E------------------------
B------------------------
G------------------------
D-333333-222222-888888-6-
A-333333-222222-888888-6-
E-111111-000000-666666-4-

E-------------------------
B-------------------------
G-666-----666-----6---6---
D-666-666-666-666-6-6-6-6-X3
A-444-666-444-666-4-6-4-6-
E-----444-----444---4---4-

E-----------------------
B-----------------------
G--666---------66666666-
D--666-666-666-66666666-
A--444-666-666-44444444-
E------444-444----------

Verse 3 (clean or light distortion)
E-------------------------------
B---------666666--------666666--
G--555555-666666-777777-666666--
D--666666-666666-888888-666666--X3
A--666666-444444-888888-444444--
E--444444--------666666---------

Verse 4 (heavier distortion until end)
E-------------------------------
B-------------------------------
G---------666666--------666666--
D--666666-666666-888888-666666--X4
A--666666-444444-888888-444444--
E--444444--------666666---------

Outro
E------------------------
B------------------------
G--------666666--------6-
D-666666-666666-888888-6-
A-666666-444444-888888-4-
E-444444--------666666---
Comments