Green Day - Waiting Chords & Tabs

 

Waiting Chords & Tabs

Green Day Chords & Tabs

Version: 1 Type: Chords 0 ratings
1 star 2 stars 3 stars 4 stars 5 stars
comments

Waiting Chords

   
WAITING - Green Day

Note: this is the correction of the last one, which has a bad thing on the 2 solo.
Nota: esta es la correccion de la ultima, la cual tenia una cosa mala en el segundo solo.

VERSE 1:

Ab5      Db5               Bb5       Db5
i been waiting a long time for this moment to come i'm
Ab5      Db5               Bb5       Db5
destined, for anything at a-a-all

Ab5       Db5
downtown lights will be shining
Bb5       Db5
on me like a new diamond
Ab5       Db5      Bb5        Db5
ring out under the midnight hour......


Ab5       Db5
no-one can touch me now wow
Bb5       Db5
and i can't turn my back now
Ab5       Db5       Bb5       Db5
its too late ready or not at a-a-all


BRIDGE:

     F5          F5/E       Eb5         Bb5
well im so much closer than i have ever know (wake up)

Db5  Ab5  Db5 (drum mini solo)


VERSE 2:

Ab5      Db5
dawning of a new era
Bb5      Db5
calling don't let it catch ya
Ab5      Db5     Bb5      Db5
falling ready or noet at a-a-all

Ab5      Db5
so close enough to taste it
Bb5      Db5
almost i can embrace this
Ab5      Db5     Bb5      Db5
feeling on the tip of my tongue u ugue


BRIDGE:

     F5          F5/E       Eb5         Bb5
well im so much closer than i have ever know (wake up)p)

Db5 Ab5 Db5 Ab5 Db5*
Db5 Ab5 Db5 Ab5 Db5*    Db5       Ab5 Db5 Ab5 Db5*
                better thank your luc  ky stars
Db5 Ab5 Db5 Eb5*
shape with her

*(listen the song for the rithm)
[ Tab from: http://www.guitartabs.cc/tabs/g/green_day/waiting_crd.html ]
SOLO:
 
   Ab5  Db5          Bb5  Db5        Ab5    Db5          Bb5   Db5
e|----------------------------------------------------------------1--|
B|------------------------------------------------------3--6-3---1---|
G|-8-\5-3-5-6-5-3-/--8-\5-3-5-6-5-3--5-\-1--3-5-6-5-3--3-3----3-1----|
D|-------------------------------------------------------------------|
A|-------------------------------------------------------------------|
E|-------------------------------------------------------------------|


BRIDGE:

     F5          F5/E       Eb5         Bb5
well im so much closer than i have ever know 

e|-------8---11-8---------8---11-8---------8---11-8-----------------|
B|-----9---9------9~----9---9------9~----9---9------9~--------------|
G|--10----------------9----------------8------------------7~----\3--|
D|------------------------------------------------------------------|
A|------------------------------------------------------------------|
E|------------------------------------------------------------------|


silence

(wake up)

Db5 Ab5 Db5 Ab5 Db5*
Db5 Ab5 Db5 Ab5 Db5*    Db5       Ab5 Db5 Ab5 Db5*
                better thank your luc  ky stars
Db5 Ab5 Db5 Eb5*
shape with her


VERSE 3: (guitar alone)

Ab5     Db5     Bb5     Db5

Ab5     Db5
i been waiting a lifetime
Bb5     Db5
for this moment to come i'm
Ab5     Db5        Bb5      (Db5)
destined for anything at a-a-all


4 seconds of silence


VERSE 4:

Ab5        Db5
dumbstruck colour me stupid
Bb5        Db5
good luck your'e gonna need it
Ab5        Db5       Bb5          Db5
where i'm going if i get there at a-a-all

Ab5     Db5      Bb5      
wake up.........(hold)
Db         Ab5             Db5      Bb5      Db5(hold)
better thank your lucky stars





Used chords :
 - Ab5 - - Db5 - - Bb5 - -  F5 - -F5/E - - Eb5 - 
e|-------|-------|-------|-------|---x---|-------|
B|-------|-------|-------|-------|---x---|-------|
G|-------|---6---|-------|-------|---2---|---8---|
D|---6---|---6---|---8---|---3---|---3---|---8---|
A|---6---|---4---|---8---|---3---|---3---|---6---|
E|---4---|-------|---6---|---1---|---0---|-------|

*************************************THIS TAB WAS MADE BY DIEGOMON*********************************************

DIEGOMON
any questions or corrections please send me a e-mail to: jdmonsalve@uole.com

Gracias al video de conan o brien que rafael se bajo porque gracias al video pude arreglar unas partes malas.

Happy new year.
Feliz aņo nuevo.
Comments