Green Day - Waiting Chords & Tabs

 

Waiting Chords & Tabs

Green Day Chords & Tabs

Version: 2 Type: Bass Tab 0 ratings
1 star 2 stars 3 stars 4 stars 5 stars
comments

Waiting Bass Tab

Song: Waiting
Artist: Green Day
Album: Warning

Intro
G-----------
D-----------
A--4--------
E-----6--4--

Verse/Bridge x4
G-------------------------------------------
D-------------------------------------------
A------------4-4-4-4-4-----------4-4-4-4-4--
E--4-4-4-4-4-----------6-6-6-6-6------------

Chorus
G-----------------------------------------------------------
D-----------------------------------------------------------
A--8-8-8-8/16-7-7-7-7-6-6-6-6------------4-4-4-------4-4-4--
E-----------------------------6-6-6-6-6--------4-4-4--------

Verse/Bridge x4
G-------------------------------------------
D-------------------------------------------
A------------4-4-4-4-4-----------4-4-4-4-4--
E--4-4-4-4-4-----------6-6-6-6-6------------
[ Tab from: http://www.guitartabs.cc/tabs/g/green_day/waiting_btab_ver_2.html ]
2nd Chorus
G----------------------------------------
D----------------------------------------
A--8-8-8-8/16-7-7-7-7-6-6-6-6------------
E-----------------------------6-6-6-6-6--
				 X3
G----------------------------------|-------------------------------
D----------------------------------|-------------------------------
A--4-4-4-------4-4-4--------4---4--|--4-4-4-------4-4-4-6-6-6-6-6--
E--------4-4-4-------4-4-4----4----|--------4-4-4------------------

Verse/Bridge x2
G-------------------------------------------
D-------------------------------------------
A------------4-4-4-4-4-----------4-4-4-4-4--
E--4-4-4-4-4-----------6-6-6-6-6------------

3rd Chorus
G--------------------------------
D--------------------------------
A--8-8-8-8/16-7-7-7-7-6-6-6-6----
E-----------------------------6--
				 X3
G----------------------------------|---------------------------------
D----------------------------------|---------------------------------
A--4-4-4-------4-4-4--------4---4--|--4-4-4-------4-4-4-6-6-6-6-6----
E--------4-4-4-------4-4-4----4----|--------4-4-4-----------------4--

Outro					  X3
G-------------------------------------------|---------------------------------
D-------------------------------------------|---------------------------------
A------------4-4-4-4-4-----------4-4-4-4-4--|-----------4-4-4-4-4----------(4)-
E--4-4-4-4-4-----------6-6-6-6-6------------|-4-4-4-4-4-----------6-6-6-6-6---
Comments